Blink 182 - Romeo And Rebecca Chords & Tabs

 

Romeo And Rebecca Chords & Tabs

Blink 182 Chords & Tabs

Version: 2 Type: Bass Tab 0 ratings
1 star 2 stars 3 stars 4 stars 5 stars
comments

Romeo And Rebecca Bass Tab

   
Artist : blink 182
Album : cheshire cat
Song : Romeo and Rebecca
Tabbed by : Jordan Gosselin

H=hammer on
P=press
\=slide up
/=slide down

Intro Part 1 (x2)
G|-----9-----9--9\----11---11--11\------13-----13--13\------14-----14--14-|
D|-7-7---7-7---7-\-9-9--9-9---9--\-11-11--11-11--11--\-12-12--12-12--12---|
A|------------------------------------------------------------------------|
E|------------------------------------------------------------------------|

Intro Part 2 (x2)
G|-----9-9-9-9-9-9\-----11-11-11-11-11-11-\------13-13-13-13-13-13-\-|
D|-7-7-7-7-7-7-7-7-\-9-9-9-9--9--9--9--9--\11-11-11-11-11-11-11-11-\-|
A|-------------------------------------------------------------------|
E|-------------------------------------------------------------------|

Continued
G|-------14-14-14-14-14-14-|
D|-12-12-12-12-12-12-12-12-|
A|-------------------------|
E|-------------------------|
[ Tab from: http://www.guitartabs.cc/tabs/b/blink_182/romeo_and_rebecca_btab_ver_2.html ]
Intro Part 3 (x2)
G|-----9---9--9-\----9--11-9-9----------9---11-9-9--------11-11-11-11-9-9-|
D|-7-7--7-7--7-\-9-9---9-------9\-11-11---11-------11/-9-9----------------|
E|------------------------------------------------------------------------|
A|------------------------------------------------------------------------|

Verse (x4)
G|-------------------------------------|
D|-------------------------------------|
E|-00000000----------------------------|
A|----------00000000-22222222-00002020-|

Chorus (x2) {Faster}
G|-------------------------------------|
D|-------------------------------------|
E|-33333333-00000000-------------------|
A|-------------------33333333-11111111-|

Verse (x4)
Chorus (x2)

Bridge (x2)
G|-------------------------|
D|------------222h3p2-0000-|
E|-333h5p------------------|
A|--------3333-------------|

Pre-Ending (x4)
G|---------------------|
D|---------------------|
E|-0000-2222-4444-5555-|
A|---------------------|

Verse (x2)

End (let ring)
G|-----|
D|-----|
A|-0~--|
E|-----|

this is a good song,i like it exept for the chorus...i dont think it goes good with the song.
Comments