Blink 182 - Romeo And Rebecca Chords & Tabs

 

Romeo And Rebecca Chords & Tabs

Blink 182 Chords & Tabs

Version: 1 Type: Bass Tab 0 ratings
1 star 2 stars 3 stars 4 stars 5 stars
comments

Romeo And Rebecca Bass Tab

   
Blink 182
Cheshire Cat (Album)
Romeo And Rebecca (Song)
Tabbed by: Keener (dckeener@yahoo.com)
--Not that hard if you practice. Good song, tricky rythem. Have fun.--
-------------------*(Print with no right margin)*---------------------

Intro Part 1 (x2)
G|-----9-----9--9\----11---11--11\------13-----13--13\------14-----14--14-
D|-7-7---7-7---7-\-9-9--9-9---9--\-11-11--11-11--11--\-12-12--12-12--12---
A|------------------------------------------------------------------------
E|------------------------------------------------------------------------

Intro Part 2 (x2)
G|-----9-----9---9\----11----11--11\
D|-7-7-7-7-7-7-7-7\-9-9-9-9-9-9-9-9\
E|----------------------------------
A|----------------------------------
               *Contunued*
G|-------13-------13----13\-------14-------14----14-
D|-11-11-11-11-11-11-11-11\-12-12-12-12-12-12-12-12-
A|--------------------------------------------------
E|--------------------------------------------------
[ Tab from: http://www.guitartabs.cc/tabs/b/blink_182/romeo_and_rebecca_btab.html ]
Intro Part 3 (x2)
G|-----9--11-9-9--------9--11-9-9---------9---11-9-9---------11-11-11-11-9-9-
D|-7-7--7--------7--9-9---9-------9--11-11--11-------11--9-9-----------------
E|---------------------------------------------------------------------------
A|---------------------------------------------------------------------------

Verse (x4)
G|-------------------------------------
D|-------------------------------------
E|-00000000----------------------------
A|----------00000000-22222222-00002000-

Chorus (x2) {Faster}
G|-------------------------------------
D|-------------------------------------
E|-33333333-00000000-------------------
A|-------------------33333333-11111111-

Verse (x4)
Chorus (x2)

Bridge (x2)
G|------------------------
D|-----0-------222h3-0000-
E|-333--------------------
A|-------3333-------------

Pre-Ending (x4)
G|---------------------
D|---------------------
E|-0000-2222-4444-5555-
A|---------------------

Verse (x2)
End (let ring)
A|-0-
Comments