Blink 182 - Roller Coaster Chords & Tabs

 

Roller Coaster Chords & Tabs

Blink 182 Chords & Tabs

Version: 7 Type: Tab 0 ratings
1 star 2 stars 3 stars 4 stars 5 stars
comments

Roller Coaster Tab

Author/Artist: Blink 182 
Title: Roller Coaster 
Album: Take Off Your Pants And Jacket 
Transcribed by: Walt Calis 
Email: megawalt3000@hotmail.com 

Intro: x1 
------------------------------------------------------------------------------ 
-2---2-3-2-------2---2-3-2---------------------------------------------------- 
---2-------2---2---2-------2---2---------------------------------------------- 
------------------------------------------------------------------------------ 
-------------0---------------0------------------------------------------------ 
------------------------------------------------------------------------------ 
                                                                               
Chorus: x2 
------------------------------------------------------------------------------ 
------------------------------------------------------------------------------ 
----2----2----2----2-----2----2----2----2----2----2----2----2----------------- 
------------------------------------------------------------------------------ 
--0---00---00---00----00---00---00---00---00---00---00---00------------------- 
------------------------------------------------------------------------------ 
                                                                               

------------------------------------------------------------------------------ 
------------------------------------------------------------------------------ 
-----7----7----7----7-----4----4----7----7------------------------------------ 
------------------------------------------------------------------------------ 
--55---55---55---55----22---22---55---55-------------------------------------- 
------------------------------------------------------------------------------ 
                                                                               
Main riff: 
---------------------|---------------------------------------------------------- 

---------------------|---------------------------------------------------------- 

---------------------|---------------------------------------------------------- 

---------------------|---------------------------------------------------------- 

--4-0-4-5-4-0-0-0-x3-|-4-0-4-5-4-0-0-2-4-0-4-5-4-0------------------------------ 

---------------------|---------------------------------------------------------- 
[ Tab from: http://www.guitartabs.cc/tabs/b/blink_182/roller_coaster_tab_ver_7.html ]
                                                                               
Verse:  
----------------------------------------|--------------------------------------- 

----------------------------------------|--------------------------------------- 

-----------7-777777-4-444444-7-777777---|----------7-7777xx-4-4444xx-7-7777xx--- 

--7-777777-7-777777-4-444444-7-777777---|-7-7777xx-7-7777xx-4-4444xx-7-7777xx--- 

--7-777777-5-555555-2-222222-5-555555-x2|-7-7777xx-5-5555xx-2-2222xx-5-5555xx-x2 

--5-555555------------------------------|-5-5555xx------------------------------ 

                                                                               
Bridge: (lots of synthesizing and bass stuff) 
------------------------------------------------------------------------------ 
------------------------------------------------------------------------------ 
--2--------------------------------------------------------------------------- 
--2--------------------------------------------------------------------------- 
--0--------------------------------------------------------------------------- 
------------------------------------------------------------------------------ 
                                                                               
Final Chorus: x2 
------------------------------------------------------------------------------ 
------------------------------------------------------------------------------ 
--2-22222-2-222222-2-222222-2-222222-2-222222-7-777777-7-777777-4-444444-7---- 
--2-22222-2-222222-2-222222-2-222222-2-222222-7-777777-7-777777-4-444444-7---- 
--0-00000-0-000000-0-000000-0-000000-0-000000-5-555555-5-555555-2-222222-5---- 
------------------------------------------------------------------------------ 
                                                                               
End 
------------------------------------------------------------------------------ 
------------------------------------------------------------------------------ 
-2---------------------------------------------------------------------------- 
-2---------------------------------------------------------------------------- 
-0---------------------------------------------------------------------------- 
------------------------------------------------------------------------------ 
                                                                               
Order: 
Intro 
Chorus  
Main riff x2 
Verse 
Main riff x1 
Verse  
Chorus 
Bridge 
Verse (pick slide to A5 here) 
Final Chorus  
Intro 
End 

Comments