Blink 182 - Roller Coaster Chords & Tabs

 

Roller Coaster Chords & Tabs

Blink 182 Chords & Tabs

Version: 4 Type: Tab 0 ratings
1 star 2 stars 3 stars 4 stars 5 stars
comments

Roller Coaster Tab

   
Blink 182 - Roller coaster 
From: Take off your pants and jacket 
Transcribed by: Colin D'arcy 
E-mail: astrobollox@hotmail.com 
------------- 

Pm=palm mute 
x=mute string 
h=hammer on 
/=slide 
~=vibrato 
b=bend 


Intro 
e|-----------------| 
B|---2---2-3-2-----| 
G|-----2-------2---| 
D|-----------------| 
A|-----------------| 
E|-----------------| 
[ Tab from: http://www.guitartabs.cc/tabs/b/blink_182/roller_coaster_tab_ver_4.html ]
RIFF A 
e|-this-bit--|--this---|--this--|-finally---| 
B|-12-times--|-4-times-|--twice-|-this-twice| 
G|-----------|---------|--------|-----------| 
D|-------7---|------7--|------7-|------7----| 
A|-----------|--5-5----|--------|--5-5------| 
E|---5-5-----|---------|--7-7---|-----------| 
The first part of this riff is played 12 times, 
then second time round its played only 8 times. 

RIFF b 
e|-----------------| 
B|-----------------| 
G|-----------------| 
D|-----------------| 
A|---4---4-5-4-----| 
E|-----5-------5---| 


e|--------------------| 
B|----------------*---| *=few thousand times 
G|----*---*---*--7----|   easy to work out 
D|---7---7---3---7----| 
A|---7---7---3---5----| 
E|---5---5---2--------| 
Guitar played behind RIFF B 

CHORUS 
e|--------------------| 
B|---------*------*---| *=8 times 
G|----*--7----*--7----| 
D|---7---7---9---7----| 
A|---7---5---9---5----| 
E|---5-------7--------| 

The interlude is some sorta computer stuff 
pickscraping can do job here, may not be perfect 
but its pretty good, or if you'd prefer just dont do it 

WOOHOO all done... 

Comments