Blink 182 - Roller Coaster Chords & Tabs

 

Roller Coaster Chords & Tabs

Blink 182 Chords & Tabs

Version: 10 Type: Tab 0 ratings
1 star 2 stars 3 stars 4 stars 5 stars
comments

Roller Coaster Tab

   
------------------------------------------------------------
                   Roller Coaster - Blink 182
------------------------------------------------------------

This is my first tab and i hope its good enough for you
-standard tuning


intro
e------------------------------------------------
B------------------------------------------------
G-6---6-7-6--------------------------------------
D---7-------7---7--------------------------------
A-------------0----------------------------------
E------------------------------------------------x2

e--------   ---------   --------   ---------
B--------   ---------   --------   ---------
G--------   ---------   --------   ---------
D-----7--   ------7--   -----7--   ------7--
A-0-0----   --5-5----   --------   --5-5----
E--------x12---------x4 -7-7----x2 ---------x2

do this twice

...then
[ Tab from: http://www.guitartabs.cc/tabs/b/blink_182/roller_coaster_tab_ver_10.html ]
e------------------------------------------------
B------------------------------------------------
G------------------------------------------------
D------------------------------------------------
A-4-0-4-5-4-0-0-0-4-0-4-5-4-0-0-0-4-0-4-5-4-0-0-2
E------------------------------------------------

e------------------
B------------------
G------------------
D------------------
A-4-0-4-5-4-0-0-0--
E------------------
do this twice


then use these chords in the verses and chorus
e------------------------------------------------
B------------------------------------------------
G-------7----------------------------------------
D-7-----7-----9----------------------------------
A-7-----5-----9----------------------------------
E-5-----------7----------------------------------

listen to the song for the right timing

repeat some of the above when needed.
this is all you need to know...enjoy!
Comments