Blink 182 - Rock Show Chords & Tabs

 

Rock Show Chords & Tabs

Blink 182 Chords & Tabs

Version: 6 Type: Tab 0 ratings
1 star 2 stars 3 stars 4 stars 5 stars
comments

Rock Show Tab

##########################################################################
#                                                                        #
#  MAIN RIFF                                                             #
#                                                                        #
##########################################################################
#                                                                        #
#   (guitar 1)                                                           #
#   -----------------------------------------------------------------    #
#   -----------------------------------------------------------------    #
#   ----------------------------------------------------------------- x2 #
#   ---------2-------0-----------------------2-------0---------2-----    #
#   -0-0-0-0---x-0-0---x-0-0-4-0-----0-0-0-0---x-0-0---x-0-0-4---4-0-    #
#   -----------------------------2-0---------------------------------    #
#                                                                        #
#   (guitar 2)                                                           #
#   -----------------------------------------------------------------    #
#   -----------------------------------------------------------------    #
#   ---------------------------------7-7-7-7-7-7-7-7-9-9-9-9-9-9-9-9- x2 #
#   -7-7-7-7-7-7-7-7-7-7-7-7-7-7-7-7-7-7-7-7-7-7-7-7-9-9-9-9-9-9-9-9-    #
#   -7-7-7-7-7-7-7-7-7-7-7-7-7-7-7-7-5-5-5-5-5-5-5-5-7-7-7-7-7-7-7-7-    #
#   -5-5-5-5-5-5-5-5-5-5-5-5-5-5-5-5---------------------------------    #
#                                                                        #
##########################################################################

OR YOU CAN PLAY IT LIKE THIS:

##########################################################################
#                                                                        #
#  MAIN RIFF (ALT)                                                       #
#                                                                        #
##########################################################################
#                                                                        #
#   (guitar 1)                                                           #
#   -----------------------------------------------------------------    #
#   -----------------------------------------------------------------    #
#   ----------------------------------------------------------------- x2 #
#   ---------2-------0-----------------------2-------0---------2-----    #
#   -0-0-0-0---x-x-x---x-x-x-4-0-----0-0-0-0---x-x-x---x-x-x-4---4-0-    #
#   -----------------------------2-0---------------------------------    #
#                                                                        #
#   (guitar 2)                                                           #
#   -----------------------------------------------------------------    #
#   -----------------------------------------------------------------    #
#   ---------------------------------7-7-7-7-7-7-7-7-9-9-9-9-9-9-9-9- x2 #
#   -7-7-7-7-7-7-7-7-7-7-7-7-7-7-7-7-7-7-7-7-7-7-7-7-9-9-9-9-9-9-9-9-    #
#   -7-7-7-7-7-7-7-7-7-7-7-7-7-7-7-7-5-5-5-5-5-5-5-5-7-7-7-7-7-7-7-7-    #
#   -5-5-5-5-5-5-5-5-5-5-5-5-5-5-5-5---------------------------------    #
#                                                                        #
##########################################################################

THE SECOND VERSION SOUNDS BETTER WHEN I JUST PLAY IT WITHOUT THE RHYTHM GUITAR BECAUSE 
CAN'T HEAR MOST OF THE OPEN A'S ANYWAY. IT'S ALSO EASIER TO PLAY. PLAY WHICHEVER.

(0:10)
------------------------------------------------------------------|
------------------------------------------------------------------|
------------------------------------------------------------------|
-7-7-7-7-7-7-7-7-7-7-7-7-7-7-7-7----------------------------------|
-7-7-7-7-7-7-7-7-7-7-7-7-7-7-7-7----------------------------------|
-5-5-5-5-5-5-5-5-5-5-5-5-5-5-5-5----------------------------------|
 |------------ PM ------------------------------------------------|

VERSE 1 (0:12)
---------------------------------------------------------------------|
---------------------------------------------------------------------|
---------------------------------7-7-7-7-7-7-7-7-9-9-9-9-9-9-9-9-----|  x2
-7-7-7-7-7-7-7-7-7-7-7-7-7-7-7-7-7-7-7-7-7-7-7-7-9-9-9-9-9-9-9-9-----|
-7-7-7-7-7-7-7-7-7-7-7-7-7-7-7-7-5-5-5-5-5-5-5-5-7-7-7-7-7-7-7-7-----|
-5-5-5-5-5-5-5-5-5-5-5-5-5-5-5-5-------------------------------------|
   |------------ PM -----------|   |---- PM ---|   |---- PM ---------|


######################
#                    #
#  MAIN RIFF (0:22)  #
#                    #
######################

(0:32)
------------------------------------------------------------------|
------------------------------------------------------------------|
------------------------------------------------------------------|
-7-(LET-)---------------------------------------------------------|
-7-(NOTE)---------------------------------------------------------|
-5-(RING)---------------------------------------------------------|

VERSE 2 (JUST BASS) (0:32)
------------------------------------------------------------------|
------------------------------------------------------------------|
---------------------------------x-x-x-x-x-x-x-x-x-x-x-x-x-x-x-x--| x2
-x-x-x-x-x-x-x-x-x-x-x-x-x-x-x-x-x-x-x-x-x-x-x-x-x-x-x-x-x-x-x-x--|
-x-x-x-x-x-x-x-x-x-x-x-x-x-x-x-x-x-x-x-x-x-x-x-x-x-x-x-x-x-x-x-x--|
-x-x-x-x-x-x-x-x-x-x-x-x-x-x-x-x----------------------------------|
[ Tab from: http://www.guitartabs.cc/tabs/b/blink_182/rock_show_tab_ver_6.html ]
CHORUS (0:42)
------------------------------------------------------------------|
------------------------------------------------------------------|
-------------------------7-7-7-7----------------------------------| x3
-7-7-7-7-7-7-7-7-4-4-4-4-7-7-7-7----------------------------------|
-7-7-7-7-7-7-7-7-4-4-4-4-5-5-5-5----------------------------------|
-5-5-5-5-5-5-5-5-2-2-2-2------------------------------------------|

(0:50)
--------------------------------------------------------------------|
--------------------------------------------------------------------|
-----------------7-7-7-7-7-7-7-7------------------------------------| x2
-2-2-2-2-2-2-2-2-7-7-7-7-7-7-7-7------------------------------------|
-2-2-2-2-2-2-2-2-5-5-5-5-5-5-5-5------------------------------------|
-0-0-0-0-0-0-0-0----------------------------------------------------|
 |---- PM -----| |---- PM ------------------------------------------|

(0:54)
--------------------------------------------------------------------|
--------------------------------------------------------------------|
-----------------7-x-x-x--------------------------------------------| x2
-2-2-2-2-2-2-2-2-7-x-x-x-7-x-x-x------------------------------------|
-2-2-2-2-2-2-2-2-5-x-x-x-7-x-x-x------------------------------------|
-0-0-0-0-0-0-0-0---------5-x-x-x------------------------------------|
 |---- PM ----------------------------------------------------------|

######################
#                    #
#  MAIN RIFF (0:57)  #
#                    #
######################

(1:07)
------------------------------------------------------------------|
------------------------------------------------------------------|
------------------------------------------------------------------|
-7-(LET-)---------------------------------------------------------|
-7-(NOTE)---------------------------------------------------------|
-5-(RING)---------------------------------------------------------|

VERSE 3 (1:07)
--------------------------------------------------------------------|
--------------------------------------------------------------------|
---------------------------------7-7-7-7-7-7-7-7-9-9-9-9-9-9-9-9----| x2
-7-7-7-7-7-7-7-7-7-7-7-7-7-7-7-7-7-7-7-7-7-7-7-7-9-9-9-9-9-9-9-9----|
-7-7-7-7-7-7-7-7-7-7-7-7-7-7-7-7-5-5-5-5-5-5-5-5-7-7-7-7-7-7-7-7----|
-5-5-5-5-5-5-5-5-5-5-5-5-5-5-5-5------------------------------------|
 |------------- PM ------------|   |--- PM ----|   |--- PM ---------|

CHORUS (1:17)
------------------------------------------------------------------|
------------------------------------------------------------------|
-------------------------7-7-7-7----------------------------------| x3
-7-7-7-7-7-7-7-7-4-4-4-4-7-7-7-7----------------------------------|
-7-7-7-7-7-7-7-7-4-4-4-4-5-5-5-5----------------------------------|
-5-5-5-5-5-5-5-5-2-2-2-2------------------------------------------|

(1:25)
--------------------------------------------------------------------|
--------------------------------------------------------------------|
-----------------7-7-7-7-7-7-7-7------------------------------------| x2
-2-2-2-2-2-2-2-2-7-7-7-7-7-7-7-7------------------------------------|
-2-2-2-2-2-2-2-2-5-5-5-5-5-5-5-5------------------------------------|
-0-0-0-0-0-0-0-0----------------------------------------------------|
 |---- PM -----| |---- PM ------------------------------------------|

(1.29)
--------------------------------------------------------------------|
--------------------------------------------------------------------|
-----------------7-x-x-x--------------------------------------------| x2
-2-2-2-2-2-2-2-2-7-x-x-x-7-x-x-x------------------------------------|
-2-2-2-2-2-2-2-2-5-x-x-x-7-x-x-x------------------------------------|
-0-0-0-0-0-0-0-0---------5-x-x-x------------------------------------|
 |---- PM ----------------------------------------------------------|

INTERLUDE (1.32)

SORRY I COULDN'T TAB THIS OUT, NOT SO GOOD WITH PICKING THIS UP. IF I GET IT I'LL POST 
LATER, IF NOT, TRY IT FOR YOURSELF.

CHORUS (1:53)
------------------------------------------------------------------|
------------------------------------------------------------------|
-------------------------7-7-7-7----------------------------------| x3
-7-7-7-7-7-7-7-7-4-4-4-4-7-7-7-7----------------------------------|
-7-7-7-7-7-7-7-7-4-4-4-4-5-5-5-5----------------------------------|
-5-5-5-5-5-5-5-5-2-2-2-2------------------------------------------|

(1:59)
--------------------------------------------------------------------|
--------------------------------------------------------------------|
-----------------7-7-7-7-7-7-7-7------------------------------------| x2
-2-2-2-2-2-2-2-2-7-7-7-7-7-7-7-7------------------------------------|
-2-2-2-2-2-2-2-2-5-5-5-5-5-5-5-5------------------------------------|
-0-0-0-0-0-0-0-0----------------------------------------------------|
 |---- PM -----| |---- PM ------------------------------------------|

(2:04)
--------------------------------------------------------------------|
--------------------------------------------------------------------|
-----------------7-x-x-x--------------------------------------------| x2
-2-2-2-2-2-2-2-2-7-x-x-x-7-x-x-x------------------------------------|
-2-2-2-2-2-2-2-2-5-x-x-x-7-x-x-x------------------------------------|
-0-0-0-0-0-0-0-0---------5-x-x-x------------------------------------|
 |---- PM ----------------------------------------------------------|

######################
#                    #
#  MAIN RIFF (2:07)  #
#                    #
######################

OUTRO (2:07)
-9-9-9-9-12-x-10-9-----------------------9-------------------------|
-------------------10-10-10-10-12-x-x-x---10-----------------------|
-------------------------------------------------------------------|
-------------------------------------------------------------------|
-------------------------------------------------------------------|
-------------------------------------------------------------------|

THE OUTRO PLAYS OVER THE TOP OF THE MAIN RIFF AND THEY BOTH REPEAT TILL THE END. I'M NOT 
SURE ABOUT THE OUTRO, BUT IT SOUNDS FAIRLY RIGHT.
ENJOY.
Comments