Blink 182 - Rock Show Chords & Tabs

 

Rock Show Chords & Tabs

Blink 182 Chords & Tabs

Version: 16 Type: Tab 0 ratings
1 star 2 stars 3 stars 4 stars 5 stars
comments

Rock Show Tab

                          Blink-182
                        The Rock Show
                Take Off Your Pants and Jacket
                            2001
                        *MCA Records*

|------------------------------------------|
|------------------------------------------|
|------------------------------------------|
|-------------2--------0-------------------|
|-0--0--0--0-----0--0-----0--0--4--0--5--0-|
|------------------------------------------|

|------------------------------------------|
|------------------------------------------|
|------------------------------------------|
|-0-----------2--------0-------------------|
|-0--0--0--0-----0--0-----0--0--4--7--4--0-|
|------------------------------------------|

P.M.-----------------------------|
|---------------------------------|
|---------------------------------|
|---------------------------------|
|---------------------------------|
|---------------------------------|
|-5-5-5-5-5-5-5-5-5-5-5-5-5-5-5-5-|

   P.M.-------------------------|    P.M.-------|
|------------------------------------------------|
|------------------------------------------------|
|---------------------------------7--------------|
|-7-------------------------------7--------------|
|-7-------------------------------5--5-5-5-5-5-5-|
|-5--5-5-5-5-5-5-5-5-5-5-5-5-5-5-----------------|
[ Tab from: http://www.guitartabs.cc/tabs/b/blink_182/rock_show_tab_ver_16.html ]
    P.M.--------| Chorus:
|----------------||----------------------------------|
|----------------||----------------------------------|
|-9--------------||--------------------------7--x--x-|
|-9--------------||-7--7--7--7-\-4--4--x--x--7--x--x-|repeat
|-7--7-7-7-7-7-7-||-7--7--7--7-\-4--4--x--x--5--x--x-|
|----------------||-5--5--5--5-\-2--2--x--x----------|

P.M.-----------------------------|
|---------------------------------|      |--------------|
|---------------------------------|      |--------------|
|---------------------------------|      |--------------|
|-9-9-9-9-9-9-9---7-7-7-7-7-------|repeat|--7-----7-----|
|-7-7-7-7-7-7-7---5-5-5-5-5-------|      |--5-----4-----|
|---------------0-----------0-0-0-|      |--------------|

Interlude:
|----------------------------------------------|
|-2----------2-----3-----2----------2-----3----|
|----2----------2-----2-----2----------2-----2-|
|----------------------------------------------|repeat
|----------------------------------------------|
|----------------------------------------------|

|-2--2--2--2--2--2--2--2--2--2--2--2--2--2--2--2--|
|-2--2--2--2--2--2--2--2--2--2--2--2--2--2--2--2--|
|-2--2--2--2--2--2--2--2--2--2--2--2--2--2--2--2--|
|-4--4--4--4--4--4--4--4--0--0--0--0--0--0--0--0--|repeat
|-4--4--4--4--4--4--4--4--------------------------|
|-2--2--2--2--2--2--2--2--------------------------|

Go back into Chorus
Comments