Blink 182 - Rock Show Chords & Tabs

 

Rock Show Chords & Tabs

Blink 182 Chords & Tabs

Version: 1 Type: Tab 2 ratings
1 star 2 stars 3 stars 4 stars 5 stars
comments

Rock Show Tab

Blink 182 "The Rock Show"
Take Off Your Pants and Jacket


Intro Riff 
e----------------------------------------------------------------------
B----------------------------------------------------------------------
G----------------------------------------------------------------------
D-------0----2-2-----0-0--------(you might need to hit each note a few more
A---0-0---0-------0-------0------times than shown)---------------------
E----------------------------------------------------------------------

after playing that a few times
e----------------------------------------------------------------------
B----------------------------------------------------------------------
G----------------------------------------------------------------------
D----7-7-7-7-7-7-7-7---------------------------------------------------
A----7-7-7-7-7-7-7-7---------------------------------------------------
E----5-5-5-5-5-5-5-5---------------------------------------------------
 p.m.--------------->
[ Tab from: http://www.guitartabs.cc/tabs/b/blink_182/rock_show_tab.html ]
Verse
e----------------------------------------------------------------------
B----------------------------------------------------------------------
G-------------7--------9-----------------------------------------------
D---7---------7--(8x)--9---(8x)----------------------------------------
A---7--(16x)--5--------7-----------------------------------------------
E---5------------------------------------------------------------------

hit each chord 1x and palm mute the rest

Chorus (3x)
e----------------------------------------------------------------------
B----------------------------------------------------------------------
G-------------------7-7------------------------------------------------
D---7-7-7--4-4-4----7-7------------------------------------------------
A---7-7-7--4-4-4----5-5------------------------------------------------
E---5-5-5--2-2-2-------------------------------------------------------

Post-Chorus (3x)
e----------------------------------------------------------------------
B----------------------------------------------------------------------
G----9-------7-------9------7------9------7----------------------------
D----9-(8x)--7-(8x)--9-(8x)-7-(8x)-9-(8x)-7-(4x)-7---------------------
A----7-------5-------7------5------7------5------7---------------------
E------------------------------------------------5---------------------

i don't know the bridge but the intro riff is repeated at other 
times in the song
e-mail corrections to 
trecool80@aol.com
Comments