Blink 182 - Rock Show Live Chords & Tabs

 

Rock Show Live Chords & Tabs

Blink 182 Chords & Tabs

Version: 2 Type: Tab 0 ratings
1 star 2 stars 3 stars 4 stars 5 stars
comments

Rock Show Live Tab

Blink-182- The Rock Show

Intro 1st part- 4X   Intro 2nd part right into the verse

e-------------------|
b-------------------|
g-------------------|
d----2--0-----------|
a--0------4--0--2--0|
e-------------------|

Intro 2nd part right into the verse palm mute all
e-------------------------------------------|
b-------------------------------------------|
g------------------------------7----------9-|
d-------------------7-77777777-7-99999999-9-|
a--7777777777777777-7-55555555-5-77777777-7-|
e--5555555555555555-5-----------------------|
[ Tab from: http://www.guitartabs.cc/tabs/b/blink_182/rock_show_live_tab_ver_2.html ]
e-----------------------------------|
b-----------------------------------|
g----------------------7----------9-|
d-----------7-77777777-7-99999999-9-|
a--77777777-7-55555555-5-77777777-7-|
e--55555555-5-----------------------|

Chorus-

e--------------------------------------------------|
b--------------------------------------------------|
g--7-7-7-7---9-------------77777777--99999999--7-9-|
d--7-7-7-7-7-9---77777777--77777777--99999999--7-9-|
a--5-5-5-5-7-7---77777777--55555555--77777777--5-7-|
e----------5-----55555555--------------------------|
                 ............palm mute.............

Solo thing to the end

e------------------|
b--2---2---2---2---|
g----2---2---2---2-|
d------------------|
a------------------|
e------------------|

Just piece all toghether and its right. Blink-182 may not be as much
punk as they used to be but their good. Plus we still have hope in
Tom and Travis's side project "Boxcar Racer" they say its more punk
than their last records... I hope its punk
Comments