Blink 182 - Rock Show Chords & Tabs

 

Rock Show Chords & Tabs

Blink 182 Chords & Tabs

Version: 4 Type: Bass Tab 0 ratings
1 star 2 stars 3 stars 4 stars 5 stars
comments

Rock Show Bass Tab

from Take Off Your Pants and Jacket
The Rock Show
Words and Music by Travis Barker, Tom De Longe and Mark Hoppus
Fast Rock = 193bpm


Intro
|-----------------|-----------------|-----------------|-----------------|
|-----------------|-----------------|-----------------|-----------------|
|-0-0-0-0-0-0-0-0-|-0-0-0-0-0-0-0-0-|-5-5-5-5-5-5-5-5-|-7-7-7-7-7-7-7-7-|
|-----------------|-----------------|-----------------|-----------------|

Build
|-----------------|-----------------|
|-----------------|-----------------|
|-----------------|-----------------|
|-5-5-5-5-5-5-5-5-|-5-5-5-5-5-5-5-5-|

Verse
|-----------------|-----------------|-----------------|-----------------|
|-----------------|-----------------|-----------------|-----------------|
|-0-0-0-0-0-0-0-0-|-0-0-0-0-0-0-0-0-|-5-5-5-5-5-5-5-5-|-7-7-7-7-7-7-7-7-|
|-----------------|-----------------|-----------------|-----------------|

Chorus
|-----------------|-----------------|-----------------|-----------------|
|-----------------|-4---4-2-0---0-0-|-----------------|-4---4-2-0---0-0-|
|-0---0---0---0-0-|-----------------|-0---0---0---0-0-|-----------------|
|-----------------|-----------------|-----------------|-----------------|

|-----------------|-----------------|-----------------|-----------------|
|-----------------|-4---4-2-0---0-0-|-2-2-2-2-2-2-2-2-|-0-0-0-0-0-0-0-0-|
|-0---0---0---0-0-|-----------------|-----------------|-----------------|
|-----------------|-----------------|-----------------|-----------------|
[ Tab from: http://www.guitartabs.cc/tabs/b/blink_182/rock_show_btab_ver_4.html ]
|-----------------|-----------------|-----------------|-----------------|
|-2-2-2-2-2-2-2-2-|-0-0-0-0-0-0-0-0-|-2-2-2-2-2-2-2-2-|-0---------------|
|-----------------|-----------------|-----------------|---------4-------|
|-----------------|-----------------|-----------------|-----------------|

Bridge
|-----------------|-----------------|-----------------|-----------------|
|-4-4-4-4-4-4-4-4-|-4-4-4-4-4-4-2-2-|-0-0-0-0-0-0-0-0-|-2-2-0-0---------|
|-----------------|-----------------|-----------------|---------4-4-2-2-|
|-----------------|-----------------|-----------------|-----------------|

|-----------------|-----------------|-----------------|-----------------|
|-----------------|-----------------|-2-2-2-2-2-2-2-2-|-2-2-2-2-0-0-2-2-|
|-0-0-0-0-0-0-0-0-|-0-0-0-0-2-2-4-4-|-----------------|-----------------|
|-----------------|-----------------|-----------------|-----------------|

|-----------------|-----------------|-----------------|-----------------|
|-4-4-4-4-4-4-4-4-|-4-4-4-4-4-4-2-2-|-0-0-0-0-0-0-0-0-|-2-2-0-0---------|
|-----------------|-----------------|-----------------|---------4-4-2-2-|
|-----------------|-----------------|-----------------|-----------------|

|-----------------|-----------------|-----------------|-----------------|
|-----------------|-----------------|-2-2-2-2-2-2-2-2-|-0-0-0-0-0-0-0-0-|
|-0-0-0-0-0-0-0-0-|-0-0-0-0-2-2-4-4-|-----------------|-----------------|
|-----------------|-----------------|-----------------|-----------------|



Intro  x2
Build
Verse  x2
Intro  x2
Verse  x2
Chorus
Intro  x2
Verse  x2
Chorus
Bridge
Chorus
Intro  x8
Comments