Blink 182 - Rock Show Chords & Tabs

 

Rock Show Chords & Tabs

Blink 182 Chords & Tabs

Version: 3 Type: Bass Tab 0 ratings
1 star 2 stars 3 stars 4 stars 5 stars
comments

Rock Show Bass Tab

   
Hey everybody,  I am new to the tab writting buisiness....so I would really
appreciate some feedback......Enjoy

Intro
G|----------------------------------------|
D|----------------------------------------|
A|--------------------5-55-5-5--7-777-77--|  
E|--5-555-55-5-555-55---------------------|

Pre-Verse
G|-----------------------------------------|
D|-----------------------------------------|
A|------------------5----------------------|
E|--555555555555555------------------------|

Verse
G|-----------------------------------------|
D|-----------------------------------------|
A|-------------------55555555-77777777-----|
E|--5555555555555555-----------------------|
[ Tab from: http://www.guitartabs.cc/tabs/b/blink_182/rock_show_btab_ver_3.html ]
Chorus
G|------------------------------------------------------------------|
D|-----------------------------------------------------4-44---------|
A|-----------------5-55-----------------5-55-----------------5-55---|
E|--5-5-5-55--2-22-------5-5-5-55--2-22-------5-5-5-55--------------|

G|------------------------------------------------------------------|
D|------------------------------------------------------------------|
A|-7-7-7-77----5-5-5-55----7-7-7-77----5-5-5-55----7-7-7-7--5--5/4--|
E|------------------------------------------------------------------|

Interlude
G|---------------------------------------|
D|---------------------------------------|
A|-99999999-7-5555555-7-22222222-77777777|
E|---------------------------------------|


**Song order**
Intro        2x
Pre-verse    1x
Verse        2x
Intro        2x
Verse        2x
Chorus       1x
Verse        2x
Chorus       1x
Interlude    2x
Chorus       1x
Intro        5x

End on....... E|--5---
Comments