Blink 182 - Rock Show Chords & Tabs

 

Rock Show Chords & Tabs

Blink 182 Chords & Tabs

Version: 1 Type: Bass Tab 0 ratings
1 star 2 stars 3 stars 4 stars 5 stars
comments

Rock Show Bass Tab

   
Blink-182
"The Rock Show"


INTRO
G-----------------------------------------|
D-----------------------------------------|
A------------------55555555-77777777------| (x2)
E-5555555555555555------------------------|

G------------------|
D------------------|
A------------------|
E-5555555555555555-|

VERSE
G-----------------------------------------|
D-----------------------------------------|
A------------------55555555-77777777------| (x2)
E-5555555555555555------------------------|

Play VERSE riff (x2) (no lyrics)

VERSE
[ Tab from: http://www.guitartabs.cc/tabs/b/blink_182/rock_show_btab.html ]
CHORUS ("I fell in love with a girl at the rock show")
G-----------------|
D-----------------|
A-------------5---| (x3)
E--5-5-5---2------|

G-----------------------------------------|
D-----------------------------------------|
A--77777777-55555555-77777777-55555555----|
E-----------------------------------------|

G-------------------|
D-------------------|
A--77777777--5---4--|
E-------------------|

Play VERSE riff (x2) (no lyrics)

VERSE

CHORUS

BREAK (again, I'm not too sure on this, but I think it
       sounds OK)
G--------------------------------------------------|
D--------------------------------------------------|
A-9999999--7--555555--4--------------4-5-77777777--| (x2)
E-----------------------7--555555--7---------------|

CHORUS

Play VERSE riff until END and fade out
Comments