Blink 182 - Reebok Commercial Chords & Tabs

 

Reebok Commercial Chords & Tabs

Blink 182 Chords & Tabs

Version: 4 Type: Tab 0 ratings
1 star 2 stars 3 stars 4 stars 5 stars
comments

Reebok Commercial Tab

   
song: Reebok Commercial
band: Blink-182
album: Buddha version

I wanna make sure this gets on to the site even though they said no more
blink tabs, but i have a shit load of there whole correct songs on my
computer that ive been holding on to and i wanna share them now, so i
dont know if you can take off some shitty versions or something like
that, all apologies but i would appreciate it. you guys are doing a
good job, ive been using your site for a long time, thanks
                             :rancidcasp182:

intro 
e--------------------|
b--------------------|
g-7~----------7-7~---| x1
d-7~--------7---7~---|
a-5~------------5~---|
e--------------------|

intro 
e-------------------------------------------|
b-------------------------------------------|
g-------------------------------------------| x2
d----------1212121212-1414141414-1212121212-|
a-12121212-1010101010-1212121212-1010101010-|
e-10101010----------------------------------|

intro 
e-------------------------|
b-------------------------|
g-7xx77-------4xx44-------| x4
d-7xx77-7xx77-4xx44-5xx55-|
a-5xx55-4xx44-2xx22-5xx55-|
e-------------------3xx33-|

pre-verse
e----------------------------------------|
b----------------------------------------|
g-77-99-1111-1212-1414-1212--------------| x1
d-77-99-1111-1212-1414-1212--------------|
a-55-77--9-9-1010-1212-1010-9/10/9-7/9/7-|
e----------------------------------------|

pre-verse
e---------------------------|
b---------------------------|
g-77-99-1111-1212-1414------| x1
d-77-99-1111-1212-1414------| 
a-55-77--9-9-1010-1212------|
e---------------------------|

verse
e----------------------------------|
b----------------------------------|
g-77777777-------------------------| x4
d-77-77-7-5555555-7777777-55555555-|
a-55-55-5-55-55-5-77-77-7-55-55-5--|
e---------33-33-3-55-55-5-33-33-3--|

intro 
e-------------------------|
b-------------------------|
g-7xx77-------4xx44-------| x4
d-7xx77-7xx77-4xx44-5xx55-|
a-5xx55-4xx44-2xx22-5xx55-|
e-------------------3xx33-|

chorus
e-------------------------|
b-------------------------|
g-77777-------------------| x2
d-77777-77777-44444-55555-|
a-55555-77777-44444-55555-|
e-------55555-22222-33333-|
[ Tab from: http://www.guitartabs.cc/tabs/b/blink_182/reebok_commercial_tab_ver_4.html ]
solo
e---------------------------------------------------------------|
b---------------------------------------------------------------|
g-777-999-111111-99-7-777-7h999-121212-11-9-777-999-111111-99-7-| x2
d---------------------------------------------------------------|
a---------------------------------------------------------------|
e---------------------------------------------------------------|

e--------------------10----10-1212-1010-9------10----10-1414-1212-|
b------------------10--1010--------------10--10--1010-------------|
g-7p6-9p6-7p6-9p6-------------------------------------------------| x1
d-----------------------------------------------------------------|
a-----------------------------------------------------------------|
e-----------------------------------------------------------------|

e-10-9------------1212-1010-9--------------1414-1212-10-9-|
b------1010101010------------10--1010101010---------------|
g---------------------------------------------------------| x1
d---------------------------------------------------------|
a---------------------------------------------------------|
e---------------------------------------------------------|

e-9h109109h109h109h109h109h109h10-9h129h129h129h129h129h129h129h12-|
b------------------------------------------------------------------|
g------------------------------------------------------------------| x2
d------------------------------------------------------------------|
a------------------------------------------------------------------|
e------------------------------------------------------------------|

intro 
e-------------------------|
b-------------------------|
g-7xx77-------4xx44-------| x2
d-7xx77-7xx77-4xx44-5xx55-|
a-5xx55-4xx44-2xx22-5xx55-|
e-------------------3xx33-|

End on
e------|
b------|
g--7---|
d--7---|
a--5---|
e------|


You are better than me
girls money and everything I like
try to compete
but you beat me at everything i do
i see in you 
the things that i would like to be
but im different from you
so you will have to be like me

i can not be bought
my personalitys what i choose
i was brought up without a silver cup
i wont bother about things own by you
for all the world
and material things and ammo and more
the jealousy of you and me
i wont have the things, all my own score

i can not be bought
my personalitys what i choose
i was brought up without a silver cup
i wont bother about things own by you
Comments