Blink 182 - Reckless Abandon Chords & Tabs

 

Reckless Abandon Chords & Tabs

Blink 182 Chords & Tabs

Version: 4 Type: Tab 0 ratings
1 star 2 stars 3 stars 4 stars 5 stars
comments

Reckless Abandon Tab

   
blink 182, reckless abandon.
 Tabbed by martial, TakOffUPantJackt@aol.com.
  
----------------------------------------------------------------------
   BLINK-182                 T.O.Y.P.A.J.                      2001

   09 -> RECKLESS ABANDON                            
   My hear is not perfect so if you find any errors or if you have
     any comments don't hesitate e-mail me I answer every mail :
                       TakOffUPantJackt@aol.com
----------------------------------------------------------------------


CHORD CHART:
        E       F#      B       G#
E|--------------------------------------------------------------------
B|--------------------------------------------------------------------
G|----------------------4---------------------------------------------
D|------2-------4-------4-------6-------------------------------------
A|------2-------4-------2-------6-------------------------------------
E|------0-------2---------------4-------------------------------------

~ = let ring
x = palm mute



Intro: (Acoustic)
      B 
        On and on, reckless abandon
      E
        Something's wrong

        This is gonna shock them
      G#           F#
        nothing to hold on to
               E
        We'll use this song

        To lead you on


Riff 1: X 2
E|--------------------------------------------------------------------
B|--------------------------------------------------------------------
G|--------------------------------------------------------------------
D|-1---4-2---1---4-2---1---4-2---1---1-2------------------------------
A|---2---------2---------1---------2-----4----------------------------
E|--------------------------------------------------------------------


Verse:
      B
        I learned a lot today
[ Tab from: http://www.guitartabs.cc/tabs/b/blink_182/reckless_abandon_tab_ver_4.html ]
        Not sure if I'll get laid and
      F#
        Not sure if I'll fail or pass

        Kissed every girl in class
      B
        Everybody would waste it all

        To have a summer that they could call
      F#
        A memory that's full of fun

        Fucked up when it's all done


Chorus:
      B
        On and on, reckless abandon
      E
        Something's wrong

        This is gonna shock them
      G#           F#
        nothing to hold on to
               E
        We'll use this song

        To lead you on
            G#                   F#
        And break the truth with more bad news.
           E
        We left a scar size extra large


-- Riff 1 -- X 2


Verse:
      B
        Sip a drink of the alcohol

        End up kneeling in bathroom stalls
      F#
        Eyes are red and my movements slow

        Too high, got vertigo
      B
        He took a shit in the bathroom tub

        And fed the dog the brownie drugs
      F#
        Tried hard to not get caught

        He fucked a chick in a parking lot


-- Chorus --


Bridge: (Clean)
        B   E   G#   F#
        B   E   G#   F#
        B   E   G#   F#
        B   E   G#   F#   B


Verse (Acoustic):
      B
        Break a window and burst a wall

        Making fun of your friend's mom
      F#
        Turn the music up way to loud

        Charge the pizza to the house
      B
        Everybody would waste it all

        To have a summer that they could call
      F#
        A memory that's full of fun

        Fucked up when it's all done


-- Chorus --


End on B

 
:: Ultimate Guitar Archive :: 
http://www.ultimate-guitar.com 



Comments