Blink 182 - Reckless Abandon Chords & Tabs

 

Reckless Abandon Chords & Tabs

Blink 182 Chords & Tabs

Version: 5 Type: Bass Tab 0 ratings
1 star 2 stars 3 stars 4 stars 5 stars
comments

Reckless Abandon Bass Tab

   
I think these are better than the others! This is my first tab ever so i hope it works. ENJOY! 

Listen to song for strumming patterns:

Guitar Intro

Riff:
G[--------------------]
D[--------------------]
A[-2222---------------]  Play 4 times
E[-----2222-4444-2222-]

Verse:
G[------------------------------------------------------------------]
D[------------------------------------------------------------------]
A[-2222222222222222----------------2222222222222222-----------------]
E[-----------------2222222222222222----------------222222222222-2-2-]
 (I learned a lot today.......)

Chorus:
G[----------------------------------------------------------------------]
D[----------------------------------------------------------------------]
A[-22-22-22-2-4-77-77-77-7-9--------------------------------------------]
E[---2--2--2------7--7--7---44444444-22222222-0000000000000000-44444444-]
 (On and on, reckless abandon.......)

G[------------]
D[------------]
A[------------]
E[-22222222-0~]

Riff:
G[--------------------]
D[--------------------]
A[-2222---------------]  Play 4 times
E[-----2222-4444-2222-]

Verse:
G[------------------------------------------------------------------]
D[------------------------------------------------------------------]
A[-2222222222222222----------------2222222222222222-----------------]
E[-----------------2222222222222222----------------222222222222-2-2-]
 (Sip a drink of alcohol........)


Chorus:
G[----------------------------------------------------------------------]
D[----------------------------------------------------------------------]
A[-22-22-22-2-4-77-77-77-7-9--------------------------------------------]
E[---2--2--2------7--7--7---44444444-22222222-0000000000000000-44444444-]
 (On and on, reckless abandon.......)
[ Tab from: http://www.guitartabs.cc/tabs/b/blink_182/reckless_abandon_btab_ver_5.html ]
G[------------]
D[------------]
A[------------]
E[-22222222-0~] (We left a scar size extra large...)

Bridge:
G[----------------------------]
D[----------------------------]
A[-2-----2-----2-----2------2~]
E[--2-4-2-2-4-2-2-4-2-2-4-2---]

Guitar part w/ singing

Chorus:
G[----------------------------------------------------------------------]
D[----------------------------------------------------------------------]
A[-22-22-22-2-4-77-77-77-7-9--------------------------------------------]
E[---2--2--2------7--7--7---44444444-22222222-0000000000000000-44444444-]
 (On and on, reckless abandon.......)

G[------------]
D[------------]
A[------------]
E[-22222222-0~] (We left a scar size extra large...)

End note:
G[---]
D[---]
A[-2~] Let ring

Thats it......ENJOY!

Heres the lyrics:

On and on, reckless abandon
Something's wrong
This is gonna shock them
Nothing to hold on to
We'll use this song
To lead you on

I learned a lot today
Not sure if I'll get laid and
Not sure if I'll fail or pass
Kissed every girl in class

Everybody would waste it all
To have a summer that they could call
A memory that's full of fun
F***ed up when its all done

On and on, reckless abandon
Something's wrong
This is gonna shock them
Nothing to hold on to
We'll use this song
To lead you on
And break the truth with more bad news
We left a scar size extra large

Break a window and bust a wall
Making fun of your friend's mom
Turn the music up way too loud
Charge the pizza to the house
Everybody would waste it all

To have a summer that they could call fun
Memory thats full of fun
F***ed up when it's done

On and on, reckless abandon
Something's wrong
This is gonna shock them
Nothing to hold on to
We'll use this song
To lead you on
And break the truth with more bad news
We left a scar size extra large
Comments