Blink 182 - Point Of View Chords & Tabs

 

Point Of View Chords & Tabs

Blink 182 Chords & Tabs

Version: 1 Type: Tab 0 ratings
1 star 2 stars 3 stars 4 stars 5 stars
comments

Point Of View Tab

 No one has tabbed the solo of Point Of View, so I did it.

Solo Part 1   (Play 2x)
e|----------------10-------------------------------
B|-10----10-12-----------------------------9-------
G|--------------------------9-----9-11-------------
D|-------------------12----------------------11----
A|-------------------------------------------------
E|-------------------------------------------------
[ Tab from: http://www.guitartabs.cc/tabs/b/blink_182/point_of_view_tab.html ]
e|----------------10-------12----10-----9----------
B|-10----10-12-------------------------------12----
G|-------------------------------------------------
D|-------------------12----------------------------
A|-------------------------------------------------
E|-------------------------------------------------

Solo Part 2
e|-9-10-9------------------------------------------
B|--------12-10-9-10-12-10-9-7-9-10-9-10-12--------
G|-------------------------------------------------
D|-------------------------------------------------
A|-------------------------------------------------
E|-------------------------------------------------

e|-------------------------------------------------
B|-10-12-14-12-10-9-10-12-10-9-7-9-10-10-9-7-------
G|-------------------------------------------9-----
D|-------------------------------------------------
A|-------------------------------------------------
E|-------------------------------------------------

Any comments? mail me at b182_aliens@hotmail.com
Comments