Blink 182 - Point Of View Chords & Tabs

 

Point Of View Chords & Tabs

Blink 182 Chords & Tabs

Version: 1 Type: Bass Tab 0 ratings
1 star 2 stars 3 stars 4 stars 5 stars
comments

Point Of View Bass Tab

Band: Blink 182
Song: Point of View
Album: Buddha 
Tabbed By: Mike (Emty981@aol.com) and my music teacher
    
      Intro 
G|----------------------------------------------------
D|-----------------------------------------------------
A|---00-4-55----00-----------------------------
E|----------------------2-00----------------
     
         Verse 
G|----------------------------------------------------
D|-----------------------------------------------------
A|---00-4-55555----00-----------------------------
E|---------------------------2-00000----------------

    Chorus
G|----------------------------------------------------
D|-----------------------------------------------------
A|---7777-9999---------------------------------
E|-------------------7777-9999------------------------

      Interlude
G|----------------------------------------------------
D|-----------------------------------------------------
A|-----------7777-------------------------
E|---5555---------7777-5555------------------------------

Listen to the song for the right order. It's pretty easy so e-mail me for 
questions and corrections.

[ Tab from: http://www.guitartabs.cc/tabs/b/blink_182/point_of_view_btab.html ]
Comments