Blink 182 - Please Take Me Home Chords & Tabs

 

Please Take Me Home Chords & Tabs

Blink 182 Chords & Tabs

Version: 6 Type: Tab 0 ratings
1 star 2 stars 3 stars 4 stars 5 stars
comments

Please Take Me Home Tab

Title: Please Take Me Home
Artist: blink-182
Tabbed by: Blake Rakoczi
E-Mail: effromtheretardedrabbit@hotmail.com

Note: I know the power chords with the numbers 6 & 8 in it and the one
      with 1 & 3 sound the same.  (I know others, too).  I'm not trying 
      to brag or anything, its just I am letting you know that I do
      recognize it.  I think it sounds better and more like the real
      song with the way I put it.  If you want you double the amount
      of times you play each chord.  It might sound better to you.
      P.S. It doesn't take a genius to figure out what chords you shouldn't
      double.

~ = Let Ring
. = Palm Mute

Intro
E|-------------------------------------------------------------------
B|-------------------------------------------------------------------
G|-------------------------------------------------------------------
D|---111111111111111111111111---------------------------------------- x1
A|-1--------------------------22222222-------------------------------
E|-------------------------------------------------------------------

E|-------------------------------------------------------------------
B|-------------------------------------------------------------------
G|-------------------------------------------------------------------
D|-11111111111111111111111------------------------------------------- x1
A|-------------------------22222222----------------------------------
E|-------------------------------------------------------------------

First Verse
E|-------------------------------------------------------------------
B|-------------------------------------------------------------------
G|-------------------------------------------------------------------
D|-11111111111111111111---------------------------------------------- x4
A|----------------------22222222-------------------------------------
E|-------------------------------------------------------------------

OR

E|-------------------------------------------------------------------
B|-------------------------------------------------------------------
G|-44444444-66666666------------------------------------------------- (PM)
D|-44444444-66666666-66666666-22222222------------------------------- x4
A|-22222222-44444444-66666666-22222222-------------------------------
E|-------------------44444444-00000000-------------------------------

Pre-Chorus
E|-------------------------------------------------------------------
B|-------------------------------------------------------------------
G|--------4-4-4------------------------------------------------------
D|-2-2-2--4-4-4--6-6-6--4-4-4--2-2-2-2-2-2-2-2--8-8-8-8--4~~~~------- x1
A|-2-2-2--2-2-2--6-6-6--4-4-4--2-2-2-2-2-2-2-2--8-8-8-8--4~~~~-------
E|-0-0-0---------4-4-4--2-2-2--0-0-0-0-0-0-0-0--6-6-6-6--2~~~~-------

Chorus
E|-------------------------------------------------------------------
B|-------------------------------------------------------------------
G|-4-4-4-4--3-3-3-3--------------------------------------------------
D|-4-4-4-4--3-3-3-3--6-6-6-6--2-2-2-2-------------------------------- x1
A|-2-2-2-2--1-1-1-1--6-6-6-6--2-2-2-2--------------------------------
E|-------------------4-4-4-4--0-0-0-0--------------------------------

E|-------------------------------------------------------------------
B|-------------------------------------------------------------------
G|-4-4-4-4--3-3-3-3--------------------------------------------------
D|-4-4-4-4--3-3-3-3--6-6-6-6--2~~~~---------------------------------- x1
A|-2-2-2-2--1-1-1-1--6-6-6-6--2~~~~----------------------------------
E|-------------------4-4-4-4--0~~~~----------------------------------

Second Verse
E|-------------------------------------------------------------------
B|-------------------------------------------------------------------
G|-------------------------------------------------------------------
D|-11111111111111111111---------------------------------------------- x4
A|----------------------22222222-------------------------------------
E|-------------------------------------------------------------------


OR

E|-------------------------------------------------------------------
B|-------------------------------------------------------------------
G|-44444444-66666666------------------------------------------------- (PM)
D|-44444444-66666666-66666666-22222222------------------------------- x4
A|-22222222-44444444-66666666-22222222-------------------------------
E|-------------------44444444-00000000-------------------------------
[ Tab from: http://www.guitartabs.cc/tabs/b/blink_182/please_take_me_home_tab_ver_6.html ]
Pre-Chorus
E|-------------------------------------------------------------------
B|-------------------------------------------------------------------
G|--------4-4-4------------------------------------------------------
D|-2-2-2--4-4-4--6-6-6--4-4-4--2-2-2-2-2-2-2-2--8-8-8-8--4~~~~------- x1
A|-2-2-2--2-2-2--6-6-6--4-4-4--2-2-2-2-2-2-2-2--8-8-8-8--4~~~~-------
E|-0-0-0---------4-4-4--2-2-2--0-0-0-0-0-0-0-0--6-6-6-6--2~~~~-------

Chorus
E|-------------------------------------------------------------------
B|-------------------------------------------------------------------
G|-4-4-4-4--3-3-3-3--------------------------------------------------
D|-4-4-4-4--3-3-3-3--6-6-6-6--2-2-2-2-------------------------------- x3
A|-2-2-2-2--1-1-1-1--6-6-6-6--2-2-2-2--------------------------------
E|-------------------4-4-4-4--0-0-0-0--------------------------------

E|-------------------------------------------------------------------
B|-------------------------------------------------------------------
G|-4-4-4-4--3-3-3-3--------------------------------------------------
D|-4-4-4-4--3-3-3-3--6-6-6-6--2~~~~---------------------------------- x1
A|-2-2-2-2--1-1-1-1--6-6-6-6--2~~~~----------------------------------
E|-------------------4-4-4-4--0~~~~----------------------------------

Bridge
E|-------------------------------------------------------------------
B|-------------------------------------------------------------------
G|-------------------------------------------------------------------
D|-4-4--2-2--1-1--2-2------------------------------------------------ x4
A|-------------------------------------------------------------------
E|-------------------------------------------------------------------

E|-------------------------------------------------------------------
B|-------------------------------------------------------------------
G|-44444444-66666666-88888888-99999999-9/8---------------------------
D|-44444444-66666666-88888888-99999999-9/8--------------------------- x2
A|-22222222-44444444-66666666-77777777-7/6---------------------------
E|-........-........-........-........-------------------------------

E|-------------------------------------------------------------------
B|-------------------------------------------------------------------
G|-4-4-4-4--3-3-3-3--8-8-8-8--6-6--4--6------------------------------
D|-4-4-4-4--3-3-3-3--8-8-8-8--6-6--4--6------------------------------ x1
A|-2-2-2-2--1-1-1-1--6-6-6-6--4-4--2--4------------------------------
E|-------------------------------------------------------------------

E|-------------------------------------------------------------------
B|-------------------------------------------------------------------
G|-4-4-4-4--3-3-3-3--8-8-8-8--6-6-6-6--------------------------------
D|-4-4-4-4--3-3-3-3--8-8-8-8--6-6-6-6-------------------------------- x1
A|-2-2-2-2--1-1-1-1--6-6-6-6--4-4-4-4--------------------------------
E|-------------------------------------------------------------------

E|-------------------------------------------------------------------
B|-------------------------------------------------------------------
G|-8-8-8-8-8-8-8-8-8-8-8-8--4-4-4-4----------------------------------
D|-8-8-8-8-8-8-8-8-8-8-8-8--4-4-4-4---------------------------------- x2
A|-6-6-6-6-6-6-6-6-6-6-6-6--2-2-2-2----------------------------------
E|-------------------------------------------------------------------

E|-------------------------------------------------------------------
B|-------------------------------------------------------------------
G|------------------------------------------------------------------- (PM)
D|-4444444444444444-------------------------------------------------- x1
A|-4444444444444444--------------------------------------------------
E|-2222222222222222--------------------------------------------------

Ending
E|-------------------------------------------------------------------
B|-------------------------------------------------------------------
G|-4-4-4-4--3-3-3-3--------------------------------------------------
D|-4-4-4-4--3-3-3-3--6-6-6-6--2-2-2-2-------------------------------- x2
A|-2-2-2-2--1-1-1-1--6-6-6-6--2-2-2-2--------------------------------
E|-------------------4-4-4-4--0-0-0-0--------------------------------

E|-------------------------------------------------------------------
B|-------------------------------------------------------------------
G|-------------------------------------------------------------------
D|-111111111111111111111111----------111111111111111111111111-------- x1
A|--------------------------22222222---------------------------------
E|-------------------------------------------------------------------

End On
E|-------------------------------------------------------------------
B|-------------------------------------------------------------------
G|-------------------------------------------------------------------
D|-2~~~~~~~~--------------------------------------------------------- x1
A|-2~~~~~~~~---------------------------------------------------------
E|-0~~~~~~~~---------------------------------------------------------
Comments