Blink 182 - Please Take Me Home Chords & Tabs

 

Please Take Me Home Chords & Tabs

Blink 182 Chords & Tabs

Version: 4 Type: Tab 0 ratings
1 star 2 stars 3 stars 4 stars 5 stars
comments

Please Take Me Home Tab

   
Artist: Blink 182 
Song: Please take me home 
Album: Take off your pants and jacket 

This is track number 13 on the new album... this song is  
great and everyone should learn to play it.. even though 
Blink 182 only has one guitarist, there are 2 guitar parts 
because in the studio he recorded over himself playing. 
I will give you both parts... there are a couple power  
chords that look like they are not right.. BUT THEY ARE!! 
this is 100% perfect 

Intro/verses 1 and 2: guitar 1 (clean) 
e)--------------------------------------- 
B)--------------------------------------- 
G)-4-88888888888888888888888888-44444444- 
D)-x-xxxxxxxxxxxxxxxxxxxxxxxxxx-xxxxxxxx- 
A)-2-66666666666666666666666666-22222222- 
E)--------------------------------------- 

(no guitar 2 in intro) 

Verses 1 and 2: guitar 2 (dist.) 
e)---------------------------------- 
B)---------------------------------- 
G)-4444444466666666----------------- 
D)-444444446666666666666666-2222222- 
A)-222222224444444466666666-2222222- 
E)-----------------44444444-0000000- 
   PM>>>>>>>>>>>>>>>>>>>>>> >>>>>>> 
Prechorus("she's unstoppable.."): both guitars (dist.) 
e)------------------------------------- 
B)------------------------------------- 
G)----------44444---------------------- 
D)-22222----44444----66666----44444---- 
A)-22222----22222----66666----44444---- 
E)-00000-------------44444----22222---- 

Fill 1(when tom says "wrong"):guitar 1 (dist.) 
e)--------------------- 
B)--------------------- 
G)--------------------- 
D)-2222222222-2-------- 
A)-2222222222-2-(hold)- 
E)-0000000000-0-------- 

Fill 1(when tom says "wrong"):guitar 2 (dist.) 
e)--------------------- 
B)--------------------- 
G)--------------------- 
D)-2222222222---------- 
A)-2222222222---------- 
E)-0000000000-6----2--- 
[ Tab from: http://www.guitartabs.cc/tabs/b/blink_182/please_take_me_home_tab_ver_4.html ]
Chorus("please take..."):both guitars (dist.) 
e)------------------------------------- 
B)------------------------------------- 
G)-44444444-44444444------------------- 
D)-44444444-44444444-66666666-22222222- 
A)-22222222-11111111-66666666-22222222- 
E)-------------------44444444-00000000- 
    ^^^^^^^^ this is one of the weird looking 
     power chords I was talking about. 
ITS RIGHT!! DON'T play G)-3- 
       D)-3- 
       A)-1- 
(play verse riffs again) 
(play prechorus riff again) 
(play Fill 1 riffs again) 
(play chorus again) 

Bridge 1: guitar 1 (clean) 
e)----------------- 
B)----------------- 
G)----------------- 
D)-4-4-6-6-9-9-9-9- 
A)-2-2-4-4-6-6-7-7- 
E)----------------- 
           ^ ^ another weird looking power chord.. again 
       this is 100% perfect 
(no guitar 2 in Bridge 1) 

Bridge 2(starts on "be strong when.."): guitar 1 (dist.) 
e)---------------------------------- 
B)---------------------------------- 
G)-444444446666666699999999999------ 
D)-444444446666666699999999999------ 
A)-222222224444444466666666777-6666- 
E)---------------------------------- 
   PM>>>>>>>>>>>>>>>>>>>>>>>>> 
Bridge 3(starts on "LET'S GO!"): guitar 1 (dist.) 
e)---------------------------------- 
B)---------------------------------- 
G)-44444444333333338888888866664466- 
D)-xxxxxxxxxxxxxxxxxxxxxxxxxxxxxxxx- 
A)-22222222111111116666666644442244- 
E)---------------------------------- 

e)---------------------------------- 
B)---------------------------------- 
G)-44444444333333338888888866666666- 
D)-xxxxxxxxxxxxxxxxxxxxxxxxxxxxxxxx- 
A)-22222222111111116666666644444444- 
E)---------------------------------- 

e)-|---------------------------|-------- 
B)-|---------------------------|-------- 
G)-|-4-88888888888888888-44444-|-------- 
D)-|-x-xxxxxxxxxxxxxxxxx-xxxxx-|times 2- 
A)-|-2-66666666666666666-22222-|-------- 
E)-|---------------------------|-------- 

(during Bridge 3, guitar 2 plays chorus riff 4 times) 

Fill 2: both guitars (dist.) 
e)----------------- 
B)----------------- 
G)----------------- 
D)-444444444444444- 
A)-444444444444444- 
E)-222222222222222- 
   PM>>>>>>>>>>>>> 
(Guitar 1 plays chorus twice then Intro/verses 1&2 twice 
with distortion) 
(Guitar 2 plays chorus four times) 

Ending note: both guitars (dist.) 
e)---------- 
B)---------- 
G)---------- 
D)-2-------- 
A)-2-(hold)- 
E)-0-------- 

Comments