Blink 182 - Please Take Me Home Chords & Tabs

 

Please Take Me Home Chords & Tabs

Blink 182 Chords & Tabs

Version: 2 Type: Tab 0 ratings
1 star 2 stars 3 stars 4 stars 5 stars
comments

Please Take Me Home Tab

intro
E|-------------------------------------------------------------------------------|
B|-------------------------------------------------------------------------------|
G|-3---888888888888888888888888--44444444----8888888888888888888888--44444444----|
D|-x---xxxxxxxxxxxxxxxxxxxxxxxx--xxxxxxxx----xxxxxxxxxxxxxxxxxxxxxx--xxxxxxxx----|
A|-1---666666666666666666666666--22222222----6666666666666666666666--22222222----|
E|-----777777777777777777777777--------------7777777777777777777777--------------|

verse
E|---------------------------------------|
B|---------------------------------------|
G|---------------------------------------|
D|-444444--22222222----------------------|
A|-222222--44444444--66666666--22222222--|
E|-------------------44444444--00000000--|
palm mute all of this

pre-chorus
E|------------------------------------|
B|------------------------------------|
G|---------44444----------------------|
D|-22222---44444---66666---44444------|
A|-22222---22222---66666---44444------|
E|-00000-----------44444---22222------|

E|--------------------------------------|
B|--------------------------------------|
G|--------------------33333333----------|
D|-22222222222222-----33333333---4------|
A|-22222222222222-----11111111---x------|
E|-00000000000000----------------2------|

chorus
E|----------------------------------------------|
B|----------------------------------------------|
G|-44444444--33333333---------------------------|
D|-44444444--44444444---66666666--22222222------|
A|-22222222--11111111---66666666--22222222------|
E|----------------------44444444--00000000------|

interlude
E|-----------------------------|
B|-----------------------------|
G|---------------4-4-----------|
D|-(4-4)--(2-2)--1-1--(2-2)----|
A|-(2-2)--(4-4)--2-2--(2-2)----|
E|-----------------------------|
(upstroke in the parenthesis)
[ Tab from: http://www.guitartabs.cc/tabs/b/blink_182/please_take_me_home_tab_ver_2.html ]
E|-------------------------------------------|
B|-------------------------------------------|
G|-------------------------------------------|
D|-44444444--22222222--11111111------11111---|
A|-22222222--44444444--^^^^^^^^--222---------|
E|-^^^^^^^^--^^^^^^^^------------^^^---------|
^=palm mute

E|-----------------------------------------------|
B|-----------------------------------------------|
G|-44444444--33333333--88888888--6666-44-66------|
D|-xxxxxxxx--xxxxxxxx--xxxxxxxx--xxxx-xx-xx------|
A|-22222222--11111111--66666666--4444-22-44------|
E|-----------------------------------------------|

E|-----------------------------------------------|
B|-----------------------------------------------|
G|-44444444--33333333--88888888--66666666--------|
D|-xxxxxxxx--xxxxxxxx--xxxxxxxx--xxxxxxxx--------|
A|-22222222--11111111--66666666--44444444--------|
E|-----------------------------------------------|

E|--------------------------------------------------------------------|
B|--------------------------------------------------------------------|
G|-88-88888-88888-888---4444-4444----88-88888-88888-888---4444-4444---|
D|-xx-xxxxx-xxxxx-xxx---xxxx-xxxx----xx-xxxxx-xxxxx-xxx---xxxx-xxxx---|
A|-66-66666-66666-666---2222-2222----66-66666-66666-666---2222-2222---|
E|--------------------------------------------------------------------|

E|-----------------------|
B|-----------------------|
G|-----------------------|
D|-----------------------|
A|-4444444444444444------|
E|-2222222222222222------|
palm mute this    then chorus twice......then.....

E|------------------------------------------------------------|
B|------------------------------------------------------------|
G|-88-88888-88888-888---4444-4444----88-88888-88888-888---4---|
D|-xx-xxxxx-xxxxx-xxx---xxxx-xxxx----xx-xxxxx-xxxxx-xxx---x---|
A|-66-66666-66666-666---2222-2222----66-66666-66666-666---2---|
E|------------------------------------------------------------|

Comments