Blink 182 - Please Take Me Home Chords & Tabs

 

Please Take Me Home Chords & Tabs

Blink 182 Chords & Tabs

Version: 1 Type: Tab 0 ratings
1 star 2 stars 3 stars 4 stars 5 stars
comments

Please Take Me Home Tab

Artist: Blink 182
Song: Please Take Me Home
Album: TOYPAJ
Tabbed by: Brandon Rompa (foofighter109@hotmail.com)

I’m positive this is 100% correct.

Intro/verse:
e|----------------------------------------------------|
B|----------------------------------------------------| 6x
G|--8-8-8-8-8-8-8-8-8-8-8-8-8-8-8-8--4-4-4-4-4-4-4-4--|
D|--X-X-X-X-X-X-X-X-X-X-X-X-X-X-X-X--X-X-X-X-X-X-X-X--|
A|--6-6-6-6-6-6-6-6-6-6-6-6-6-6-6-6--2-2-2-2-2-2-2-2--|
E|----------------------------------------------------|

Tom’s background overdub chords:
e|----------------------------------------------------------------------|
B|----------------------------------------------------------------------|
G|--4-4-4-4-4-4-4-4--6-6-6-6-6-6-6-6------------------------------------|
D|--4-4-4-4-4-4-4-4--6-6-6-6-6-6-6-6--6-6-6-6-6-6-6-6--2-2-2-2-2-2-2-2--|
A|--2-2-2-2-2-2-2-2--4-4-4-4-4-4-4-4--6-6-6-6-6-6-6-6--2-2-2-2-2-2-2-2--|
E|------------------------------------4-4-4-4-4-4-4-4--0-0-0-0-0-0-0-0--|

e|----------------------------------------------------------------------|
B|----------------------------------------------------------------------|
G|--4-4-4-4-4-4-4-4--6-6-6-6-6-6-6-6-------------------9-9-9-9-9-9-9-9--|
D|--4-4-4-4-4-4-4-4--6-6-6-6-6-6-6-6--6-6-6-6-6-6-6-6--9-9-9-9-9-9-9-9--|
A|--2-2-2-2-2-2-2-2--4-4-4-4-4-4-4-4--6-6-6-6-6-6-6-6--7-7-7-7-7-7-7-7--|
E|------------------------------------4-4-4-4-4-4-4-4-------------------|

Pre-Chorus: 
e|----------------------------------------------|
B|----------------------------------------------|
G|-------------4-4-4-4-4------------------------|
D|--2-2-2-2-2--4-4-4-4-4--6-6-6-6-6--4-4-4-4-4--|
A|--2-2-2-2-2--2-2-2-2-2--6-6-6-6-6--4-4-4-4-4--|
E|--0-0-0-0-0-------------4-4-4-4-4--2-2-2-2-2--|
[ Tab from: http://www.guitartabs.cc/tabs/b/blink_182/please_take_me_home_tab.html ]
 
e|-------------------------------------------------------|
B|-------------------------------------------------------|
G|-----------------------------------3-3-3-3-3-3-3-3-----|
D|--2-2-2-2-2-2-2-2-2-2-2-2-2-2-2-2--3-3-3-3-3-3-3-3--4--|
A|--2-2-2-2-2-2-2-2-2-2-2-2-2-2-2-2--1-1-1-1-1-1-1-1--4--|
E|--0-0-0-0-0-0-0-0-0-0-0-0-0-0-0-0-------------------2--|

Chorus: 
E|--------------------------------------|
B|--------------------------------------| 2x
G|--4-4-4-4--4-4-4-4--------------------|
D|--4-4-4-4--4-4-4-4--6-6-6-6--2-2-2-2--|
A|--2-2-2-2--1-1-1-1--6-6-6-6--2-2-2-2--|
E|--------------------4-4-4-4--0-0-0-0--|

Interlude: 
e|----------------------|
B|----------------------| 4x
G|----------------------|
D|--9-9--9-9--4-4--9-9--|
A|--9-9--7-7--6-6--7-7--|
E|----------------------|

 Solo Thing
e|-------------------------------------------------------------------|
B|-------------------------------------------------------------------| 
G|--4-4-4-4-4-4-4-4-3-3-3-3-3-3-3-3-8-8-8-8-8-8-8-8-6-6-6-6-4-4-6-6--|    2x
D|--x-x-x-x-x-x-x-x-x-x-x-x-x-x-x-x-x-x-x-x-x-x-x-x-x-x-x-x-x-x-x-x--|
A|--2-2-2-2-2-2-2-2-1-1-1-1-1-1-1-1-6-6-6-6-6-6-6-6-4-4-4-4-2-2-4-4--|
E|-------------------------------------------------------------------|

  **There’s weird timing on this, listen to the cd.** 
e|--------------------------------------------------|
B|--------------------------------------------------| 2x
G|--8-8-8-8-8-8--8-8-8-8-8---8-8-8-8-8--4--4-4-4-4--|
D|--X-X-X-X-X-X--X-X-X-X-X---X-X-X-X-X--X--X-X-X-X--|
A|--6-6-6-6-6-6--6-6-6-6-6---6-6-6-6-6--2--2-2-2-2--|
E|--------------------------------------------------|

e|-----------------------------------|
B|-----------------------------------|
G|-----------------------------------|
D|--4-4-4-4-4-4-4-4-4-4-4-4-4-4-4-4--|
A|--4-4-4-4-4-4-4-4-4-4-4-4-4-4-4-4--|
E|--2-2-2-2-2-2-2-2-2-2-2-2-2-2-2-2--|
 P.M…********************************


Chorus x2

End on:

e|-----
B|-----
G|-----
D|--2--
A|--2--
E|--0--

Peace.
Comments