Blink 182 - Pathetic Chords & Tabs

 

Pathetic Chords & Tabs

Blink 182 Chords & Tabs

Version: 9 Type: Tab 0 ratings
1 star 2 stars 3 stars 4 stars 5 stars
comments

Pathetic Tab

   
Intro
e|-----------------------------------------------|
B|--5/7------5/7------5/7--4---4---4---4---------|X4
G|------0000-----0000--------4---4---4-----------|
D|-----------------------------------------------|
A|-----------------------------------------------|
E|-----------------------------------------------|


 / Slide
 
Verse

e|-----------------------------------------------|
B|-----------------------------------------------|
G|-4-4-4-4-4-4-4-4-4-4/11-11-11-11-11--9-9-9-9-9-|x4
D|-4-4-4-4-4-4-4-4-4-4/11-11-11-11-11--9-9-9-9-9-|
A|-2-2-2-2-2-2-2-2-2-2/9--9--9--9--9---7-7-7-7-7-|
E|-----------------------------------------------|

ChorusX2
[ Tab from: http://www.guitartabs.cc/tabs/b/blink_182/pathetic_tab_ver_9.html ]
E|--------------------------------------------------------------------------
B|--------------------------------------------------------------------------
G|------------------4-4-------------------4-4-------------------------------
D|-6-6-6-6-6-6-6-6--4-4--4-4-4-4-4-4-4-4--4-4--2-2-2-2-2-2-2-2-2-2-2-2-2-2-2
A|-6-6-6-6-6-6-6-6--2-2--4-4-4-4-4-4-4-4--2-2--2-2-2-2-2-2-2-2-2-2-2-2-2-2-2
E|-4-4-4-4-4-4-4-4-------2-2-2-2-2-2-2-2-------0-0-0-0-0-0-0-0-0-0-0-0-0-0-0


Ending

e|-----|
B|-----|
G|-4-4-|
D|-4-4-|
A|-2-2-|
E|-----|
 
 Order:
Intro
Verse
Chorus
intro
Verse
Chorus(Parm mute)
intro
Chorus
ending

Tabed by Tom Attwood (Zero_machine2k@hotmail.com)
Comments