Blink 182 - Pathetic Chords & Tabs

 

Pathetic Chords & Tabs

Blink 182 Chords & Tabs

Version: 7 Type: Tab 0 ratings
1 star 2 stars 3 stars 4 stars 5 stars
comments

Pathetic Tab

this is my first tab so dont complain if it sux> but here it is hope you like it
     
itnro: played 5 x             *=palm mute
[ Tab from: http://www.guitartabs.cc/tabs/b/blink_182/pathetic_tab_ver_7.html ]
e:-----------------------------------------------------------------------------
b:-5--7---0--0--0--0--5--7--0--0--0--0--5--7--0--0--0--0--4--0--4--0-4----------
g:------------------------------------------------------------------------------
d:------------------------------------------------------------------------------
a:------------------------------------------------------------------------------
e:------------------------------------------------------------------------------
  
  verse 1: you know im pathetic ... play 4 X
e:------------------------------------------------------------------------------
b:------------------------------------------------------------------------------
g:--5-5-5-5-5-5-5-5-5-5--12-12-12-12-12--10-10-10-10-10-------------------------
d:--5-5-5-5-5-5-5-5-5-5--12-12-12-12-12--10-10-10-10-10-------------------------
a:--3-3-3-3-3-3-3-3-3-3--10-10-10-10-10--8--8--8--8--8--------------------------
e:------------------------------------------------------------------------------
    
        chorus: dont hold me down .... x 2
e:------------------------------------------------------------------------------
b:------------------------------------------------------------------------------
g:----------------5-----------------5-------------------------------------------
d:-5-5-5-5-5-5-5--5--5-5-5-5-5-5-5--5--3-3-3-3-3-3-3-3-3-3-3-3------------------
a:-5-5-5-5-5-5-5--3--5-5-5-5-5-5-5--3--3-3-3-3-3-3-3-3-3-3-3-3------------------
e:-7-7-7-7-7-7-7-----3-3-3-3-3-3-3-----1-1-1-1-1-1-1-1-1-1-1-1------------------

into: x4
verse 1:x4

             played: x2
e:------------------------------------------------------------------------------
b:------------------------------------------------------------------------------
g:----------------5-----------------5-------------------------------------------
d:-5-5-5-5-5-5-5--5--5-5-5-5-5-5-5--5--3-3-3-3-3-3-3-3-3-3-3-3------------------
a:-5-5-5-5-5-5-5--3--5-5-5-5-5-5-5--3--3-3-3-3-3-3-3-3-3-3-3-3------------------
e:-7-7-7-7-7-7-7-----3-3-3-3-3-3-3-----1-1-1-1-1-1-1-1-1-1-1-1------------------
---*-*-*-*-*-*-*-----*-*-*-*-*-*-*-----*-*-*-*-*-*-*-*-*-*-*-*------------------

intro: x4
chorus:x2
                ( ending )
e:------------------------------------------------------------------------------
b:------------------------------------------------------------------------------
g:-5-5--------------------------------------------------------------------------
d:-5-5--------------------------------------------------------------------------
a:-3-3--------------------------------------------------------------------------
e:------------------------------------------------------------------------------
Comments