Blink 182 - Pathetic Chords & Tabs

 

Pathetic Chords & Tabs

Blink 182 Chords & Tabs

Version: 5 Type: Tab 0 ratings
1 star 2 stars 3 stars 4 stars 5 stars
comments

Pathetic Tab

Standard Tuning

Intro Riff

E---------------------------------
B-5-7-0000--5-7-0000--5-7-0000-4--
G---------------------------------   X 4
D---------------------------------
A---------------------------------
E---------------------------------
 Verse Riff
[ Tab from: http://www.guitartabs.cc/tabs/b/blink_182/pathetic_tab_ver_5.html ]
  I know I'm Pathetic I knew when she said it 
E----------------------------------------------------------
B----------------------------------------------------------
G--444444444444444444444444444444444444444444--------------
D--444444444444444444444444444444444444444444--------------
A--222222222222222222222222222222222222222222--------------
E----------------------------------------------------------
  A loser a bum's what she  called me when I drove her  ho-
E----------------------------------------------------------
B----------------------------------------------------------
G--11-11-11-11-11-11-11-11--999999999999999999999999999999-
D--11-11-11-11-11-11-11-11--999999999999999999999999999999-
A--9--9--9--9--9--9--9--9---777777777777777777777777777777-
E----------------------------------------------------------
-me there's no more waiting and sure no more wasting
E----------------------------------------------------------
B----------------------------------------------------------
G-44444444444444444444444444444444444444444444444444-------
D-44444444444444444444444444444444444444444444444444-------
A-22222222222222222222222222222222222222222222222222-------
E----------------------------------------------------------
  I've done all I can but she still wants to be left alone
E----------------------------------------------------------
B----------------------------------------------------------
G--11-11-11-11-11-11-11-11-11-11-9999999999999999999999999-
D--11-11-11-11-11-11-11-11-11-11-9999999999999999999999999-
A--9--9--9--9--9--9--9--9--9--9--7777777777777777777777777-
E----------------------------------------------------------
  you've got you've got you've got to help me out
E----------------------------------------------------------
B----------------------------------------------------------
G-44444444444444444444444444444444444444444444444----------
D-44444444444444444444444444444444444444444444444----------
A-22222222222222222222222222222222222222222222222----------
E----------------------------------------------------------
 And I'll try not to argue  No one no one no one likes a
E----------------------------------------------------------
B----------------------------------------------------------
G-11-11-11-11--999999999999--444444444444444444444444444---
D-11-11-11-11--999999999999--444444444444444444444444444---
A-9--9--9--9---777777777777--222222222222222222222222222---
E----------------------------------------------------------

  drop out  mistakes are hard to undo
E----------------------------------------------------------
B----------------------------------------------------------
G-4444--11-11-11-11-11-11-99999999999----------------------
D-4444--11-11-11-11-11-11-99999999999---------------------
A-2222--9--9--9--9--9--9--77777777777----------------------
E----------------------------------------------------------

CHORUS Riff
 
 Don't pull me down ths is were I belong................
E----------------------------------------------------------
B----------------------------------------------------------
G-----------4444-------------------------------------------
D-666666666-4444-4444444444444444444444-22222222222222222--
A-666666666-2222-4444444444444444444444-22222222222222222--
E-444444444------2222222222222222222222-0000000000000000---

Structure: Intro Riff
           Verse 1
           Chorus
           Intro Riff
           Verse 2
           Chorus
           Intro Riff
           Chorus (without words)
           Chorus

By Mike Swehla and Katie Chulick


            
Comments