Blink 182 - Pathetic Chords & Tabs

 

Pathetic Chords & Tabs

Blink 182 Chords & Tabs

Version: 3 Type: Tab 0 ratings
1 star 2 stars 3 stars 4 stars 5 stars
comments

Pathetic Tab

=======================BLINK 182======================
=======================PATHETIC=======================

little slow intro (only done at live shows)

|---------------------------|
|---------------------------|
|-8-9------8-9-------|play  |
|-8-9-9----8-9-7---9-|this  |
|-6-7-9----6-7-7---9-|1 note|
|-----7--------5---7-|x 12  |

real intro
|-----------------------|play this
|-570005700057000404040-|   x 3.5
|-----------------------|
|-----------------------|
|-----------------------|
|-----------------------|

verse
(i know i'm pathetic, i knew when she said it...)
|--------|
|--------|
|---11-9-|play this
|-9-11-9-|   x 4
|-9--9-7-|
|-7------|

[ Tab from: http://www.guitartabs.cc/tabs/b/blink_182/pathetic_tab_ver_3.html ]
Chorus
(don't hold me down this is where i belong...)
|-----------|
|-----------|
|---4---4---|play this
|-6-4-4-4-2-|    x 2
|-6-2-4-2-2-|
|-4---2---0-|

play real intro again (x 3.5)
 
play verse again x 4.(palm mute the first chord during "i think it's digusting, believing and trusting)

play chorus again x 2. (palm mute the whole thing until the second "i think i'm different)

play real intro again (this time play x 4)

go straight to the chorus (play x 2)

end song with
|------|
|------|
|------|
|-9-9-9|play quickly
|-9-9-9|one after another
|-7-7-7|

thanks for lookin' at the tab.  believe me, it's correct.  if you have questions or comments email me (blinkman0000@earthlink.net)  blink ruleZ.
 
:: Ultimate Guitar Archive :: 
http://www.ultimate-guitar.com
Comments