Blink 182 - Pathetic Chords & Tabs

 

Pathetic Chords & Tabs

Blink 182 Chords & Tabs

Version: 2 Type: Tab 0 ratings
1 star 2 stars 3 stars 4 stars 5 stars
comments

Pathetic Tab

   
"Pathetic"
 blink 182
 Dude Ranch

Intro
e-0-2---------0-2---------0-2----------------------
b-----0-0-0-0-----0-0-0-0-----0-0-0-0-4-0-4-0-4-0--
g--------------------------------------------------
d--------------------------------------------------
a--------------------------------------------------
e--------------------------------------------------
[ Tab from: http://www.guitartabs.cc/tabs/b/blink_182/pathetic_tab_ver_2.html ]
Chords
e------------------------
b------------------------
g-4--9-11----------------
d-4--9-11------6--4---2--
a-2--7--9------6--4---2--
e--------------4--2---0--
 B5  E5 F#ii5 G#5 F#5 Em

Verse
B5 F#5ii E5

Chorus
G#5 B5 F#5 B5 Em

Matt Nielsen zorg500@hotmail.com

Comments