Blink 182 - Pathetic Chords & Tabs

 

Pathetic Chords & Tabs

Blink 182 Chords & Tabs

Version: 10 Type: Tab 0 ratings
1 star 2 stars 3 stars 4 stars 5 stars
comments

Pathetic Tab

   
Pathetic(Live Version)-Blink 182

(Let Ring)
X- Palm Muting

Intro
E-0-2-----------0-2-----------0-2-------------------------------------
B------0-0-0-0-----0-0-0-0-------0-0-0-0--0-4-0-4-0-4-0-4-------------
G---------------------------------------------------------------------
D---------------------------------------------------------------------
A---------------------------------------------------------------------
E---------------------------------------------------------------------4X

Verse
E-------------------------------------------------
B-------------------------------------------------
G-----------------11-11-11-11-9-9-9-9-------------
D-9-9-9-9-9-9-9-9-11-11-11-11-9-9-9-9-------------
A-9-9-9-9-9-9-9-9--9--9--9--9-7-7-7-7-------------
E-7-7-7-7-7-7-7-7---------------------------------
4X

Chorus 1-First Pt.
E----------------------------------------------------------------------
B----------------------------------------------------------------------
G-----------------4-4---------------4-4--------------------------------
D-6-6-6-6-6-6-6-6-x-x-4-4-4-4-4-4-4-x-x-2-2-2-2-2-2-2-2-2-2-2-2-2-2-2-2
A-6-6-6-6-6-6-6-6-2-2-4-4-4-4-4-4-4-2-2-2-2-2-2-2-2-2-2-2-2-2-2-2-2-2-2
E-4-4-4-4-4-4-4-4-----2-2-2-2-2-2-2-----0-0-0-0-0-0-0-0-0-0-0-0-0-0-0-0
1x
[ Tab from: http://www.guitartabs.cc/tabs/b/blink_182/pathetic_tab_ver_10.html ]
Chorus 1-Second Pt.
E----------------------------------------------------------------------
B----------------------------------------------------------------------
G-----------------4-4-----------------4-4-----------------9-9-9-9-9-9-9
D-6-6-6-6-6-6-6-6-x-x-4-4-4-4-4-4-4-4-x-x-2-2-2-2-2-2-2-2-9-9-9-9-9-9-9
A-6-6-6-6-6-6-6-6-2-2-4-4-4-4-4-4-4-4-2-2-2-2-2-2-2-2-2-2-7-7-7-7-7-7-7
E-4-4-4-4-4-4-4-4-----2-2-2-2-2-2-2-2-----0-0-0-0-0-0-0-0-------------- 1X

Chorus 2- First Pt.
E----------------------------------------------------------------
B----------------------------------------------------------------
G-----------------4-4-----------------4-4------------------------
D-6-x-x-x-x-x-x-x-x-x-4-x-x-x-x-x-x-x-x-x-----(2)----------------
A-6-x-x-x-x-x-x-x-2-2-4-x-x-x-x-x-x-x-2-2-----(2)----------------
E-4-x-x-x-x-x-x-x-----2-x-x-x-x-x-x-x---------(0)---------------- 1X

Chorus 2- Second Pt.
E-------------------------------------------------------------------------
B-------------------------------------------------------------------------
G-----------------4-4-----------------4-4------------------9-9-9-9-9-9-9-9
D-6-x-x-x-x-x-x-x-x-x-4-x-x-x-x-x-x-x-x-x--2-2-2-2-2-2-2-2-9-9-9-9-9-9-9-9
A-6-x-x-x-x-x-x-x-2-2-4-x-x-x-x-x-x-x-2-2--2-2-2-2-2-2-2-2-7-7-7-7-7-7-7-7
E-4-x-x-x-x-x-x-x-----2-x-x-x-x-x-x-x------0-0-0-0-0-0-0-0----------------
1X

End On
E---------------------------
B---------------------------
G-4-4-4-------------------
D-4-4-4-------------------
A-2-2-2-------------------
E---------------------------

ORDER:
Intro 4X
Verse 4X
First Chorus Pt.1 1X
First Chorus Pt.2 1X
Intro 4X
Verse 4X
Second Chorus Pt. 1 1X
Second Chorus Pt. 2 1X
Intro 4X
First Chorus Pt.1 1X(Part Without Words)
First Chorus Pt.1 1x
First Chorus Pt.2 1X
End On
Comments