Blink 182 - Pathetic Live Chords & Tabs

 

Pathetic Live Chords & Tabs

Blink 182 Chords & Tabs

Version: 1 Type: Tab 0 ratings
1 star 2 stars 3 stars 4 stars 5 stars
comments

Pathetic Live Tab

This tab should be pretty accurate i tabbed it from the sydney big day out concert
download it for yourself if you want 2 hear it played. Also the intro is done the
way i like to play it if you don't like this intro use the other one they sound almost
exactly the same. I hope you like it, it's my first tab.

Intro I x3

|-----------------------------------------------|
|-5-7-0-0-0---5-7-0-0-0---5-7-0-0-0-4-0-4-0-4---|
|-----------------------------------------------|
|-----------------------------------------------|
|-----------------------------------------------|
|-----------------------------------------------|


Intro II  x1

|----------------------------|
|-5-7-0-0-0---5-7-0-0-0------|
|----------------------------|
|----------------------------|
|----------------------------|
|----------------------------|


Verse I x4

|------------------------------------------------|
|------------------------------------------------|
|-4-4-4-4-4-4-4-4-4-4--11-11-11-11-11--9-9-9-9-9-|
|-4-4-4-4-4-4-4-4-4-4--11-11-11-11-11--9-9-9-9-9-|
|-2-2-2-2-2-2-2-2-2-2--9--9--9--9--9---7-7-7-7-7-|
|------------------------------------------------|

Chorus I x2

|---------------------------------------------------------------------------|
|---------------------------------------------------------------------------|
|------------------4-4-------------------4-4--------------------------------|
|-6-6-6-6-6-6-6-6--4-4--4-4-4-4-4-4-4-4--4-4--2-2-2-2-2-2-2-2-2-2-2-2-2-2-2-|
|-6-6-6-6-6-6-6-6--2-2--4-4-4-4-4-4-4-4--2-2--2-2-2-2-2-2-2-2-2-2-2-2-2-2-2-|
|-4-4-4-4-4-4-4-4-------2-2-2-2-2-2-2-2-------0-0-0-0-0-0-0-0-0-0-0-0-0-0-0-|
[ Tab from: http://www.guitartabs.cc/tabs/b/blink_182/pathetic_live_tab.html ]
Intro I x3
Intro II x1
Verse x4* (Palm Mute the first chord except for first strum the first time you play it)
Chorus x2*

*1st time chorus is normal palm muted like this
|---------------------------------------------------------------------------|
|---------------------------------------------------------------------------|
|------------------4-4-------------------4-4--------------------------------|
|-6-x-x-x-x-x-x-x--4-4--4-x-x-x-x-x-x-x--4-4--2-x-x-x-x-x-x-x-x-x-x-x-x-x-x-|
|-6-x-x-x-x-x-x-x--2-2--4-x-x-x-x-x-x-x--2-2--2-x-x-x-x-x-x-x-x-x-x-x-x-x-x-|
|-4-x-x-x-x-x-x-x-------2-x-x-x-x-x-x-x-------0-x-x-x-x-x-x-x-x-x-x-x-x-x-x-|

*2nd time chorus palm muted kind of weird it goes something like this
|---------------------------------------------------------------------------|
|---------------------------------------------------------------------------|
|------------------4-4-------------------4-4------------------4-4-4-4-4-4-4-|
|-6-x-x-x-6-x-6-x--4-4--4-x-x-x-4-x-4-x--4-4--2-x-x-x-2-x-x-x-4-4-4-4-4-4-4-|
|-6-x-x-x-6-x-6-x--2-2--4-x-x-x-4-x-4-x--2-2--2-x-x-x-2-x-x-x-2-2-2-2-2-2-2-|
|-4-x-x-x-4-x-4-x-------2-x-x-x-2-x-2-x-------0-x-x-x-0-x-x-x---------------|

Intro I x3
Intro II x1

End like this

|----------------------------------------------------------------------------|
|----------------------------------------------------------------------------|
|-----------------4-4-------------------4-4----------------------------------|
|6-6-6-6-6-6-6-6--4-4--4-4-4-4-4-4-4-4--4-4--9-9-9-9-8-8-8-8-9-9-9-9-8-8-8-8-|
|6-6-6-6-6-6-6-6--2-2--4-4-4-4-4-4-4-4--2-2--9-9-9-9-8-8-8-8-9-9-9-9-8-8-8-8-|
|4-4-4-4-4-4-4-4-------2-2-2-2-2-2-2-2-------7-7-7-7-6-6-6-6-7-7-7-7-6-6-6-6-|
Comments