Blink 182 - Pathetic Live Chords & Tabs

 

Pathetic Live Chords & Tabs

Blink 182 Chords & Tabs

Version: 1 Type: Bass Tab 0 ratings
1 star 2 stars 3 stars 4 stars 5 stars
comments

Pathetic Live Bass Tab

 Pathetic by: Blink-182  This Is how it was played at Big Day Out in 2000.

Intro x4
- ---------------------------------------------------------------
- ---------------------------------------------------------------  
- -66666666-77777777-------------------------------------------
- --------------------7777777777777777---------------------------

On Fourth Time Play...
- ---------------------------------------------------------------
- ---------------------------------------------------------------
- -66666666-77777777---------------------------------------------
- ---------------------------------------------------------------

Verse x4
- ---------------------------------------------------------------
- ---------------------------------------------------------------  
- ----------------------------99-9-99-9-99--77-7-77-7-77---------
- -77-7-77-7-77-7-77-7-77-7-7------------------------------------

Chorus x2
- ---------------------------------------------------------------
- ---------------------------------------------------------------  
- ---------------22--------------22------------------------------
- -44-4-44-4-44----22-2-22-2-22----00-0-00-0-00-0-00-0-00-0-0----
[ Tab from: http://www.guitartabs.cc/tabs/b/blink_182/pathetic_live_btab.html ]
Intro x4
- ---------------------------------------------------------------
- ---------------------------------------------------------------  
- -66666666-77777777---------------------------------------------
- --------------------7777777777777777---------------------------

Chorus x2
- ---------------------------------------------------------------
- ---------------------------------------------------------------  
- ---------------22--------------22------------------------------
- -44-4-44-4-44----22-2-22-2-22----00-0-00-0-00-0-00-0-00-0-0----

Intro x4
- ---------------------------------------------------------------
- ---------------------------------------------------------------  
- -66666666-77777777---------------------------------------------
- --------------------7777777777777777---------------------------

Bridge x1 (Chorus Played Heavy) 
- ---------------------------------------------------------------
- ---------------------------------------------------------------  
- ---------------22--------------22------------------------------
- -44-4-44-4-44----22-2-22-2-22----00-0-00-0-00-0-00-0-00-0-0----

Chorus x1
- ---------------------------------------------------------------
- ---------------------------------------------------------------  
- ---------------22--------------22------------------------------
- -44-4-44-4-44----22-2-22-2-22----00-0-00-0-00-0-00-0-00-0-0----

End
- ----------
- ----------
- ----------
- ---7777---

        If you Listen to The Cd (Dude Ranch) You can Get The Rythem.
                              Rate This Plz. Its My 1st Tab. Thnx.
                                                              Jim
Comments