Blink 182 - Pathetic Chords & Tabs

 

Pathetic Chords & Tabs

Blink 182 Chords & Tabs

Version: 2 Type: Bass Tab 0 ratings
1 star 2 stars 3 stars 4 stars 5 stars
comments

Pathetic Bass Tab

   
PATHETIC
DUDE RANCH
BLINK 182
tabbed by FRASER D

INTROx3

G-------------------------------------
D-99999999-99999999-9999999999999999--   
A-66666666-77777777-xxxxxxxxxxxxxxxx--
E-------------------7777777777777777--

2nd part of introx1

G-------------------
D-99999999-99999999-  
A-66666666-77777777-
E-------------------

VERSEx4

G-------------------------------------------------------
D-------------------------------------------------------  
A----------------------------9-9--9-9-9-9--7-7--7-7-7-7-
E-7-7--7-7-7-7--7-7--7-7-7-7----------------------------

CHORUSx2
[ Tab from: http://www.guitartabs.cc/tabs/b/blink_182/pathetic_btab_ver_2.html ]
G-----------------------------------------------------------------------------
D-----------------------------------------------------------------------------
A---------------------2-2--------------------2-2------------------------------
E-4-4--4-4-4-4--4-4--4---2-2--2-2-2-2--2-2--2---0-0-0-0-0-0-0-0-0-0-0-0-0-0-0-

INTROx3

2nd INTROx1

VERSEx4

CHORUSx2

G------------------------------------------------------------------------------
D------------------------------------------------------------------------------
A---------------------2-2--------------------2-2-7-7-7-7-7-7-7-7-7-7-7-7-7-7-7-
E-4-4--4-4-4-4--4-4--4---2-2--2-2-2-2--2-2--2----------------------------------

INTROx4

CHORUSX2

G------------------------------------------------------------------------------
D------------------------------------------------------------------------------
A---------------------2-2--------------------2-2-------------------------------
E-4-4--4-4-4-4--4-4--4---2-2--2-2-2-2--2-2--2----0-0-0-0-0-0-0-0-0-0-0-0-0-0-0-

THIS IS MY FIRST TAB AND IM PRETTY SURE IT'S RIGHT.HAVE FUN!!!
Comments