Blink 182 - Party Song Chords & Tabs

 

Party Song Chords & Tabs

Blink 182 Chords & Tabs

Version: 6 Type: Tab 0 ratings
1 star 2 stars 3 stars 4 stars 5 stars
comments

Party Song Tab

                  --------PARTY SONG by blink 182---------|
                       ---------by alex f.----------------|
h- hammer
~- let it ring

just bass intro for first verse:
G-----------------------------------| x3
D---------22222222--------22222222--|
A-22222222--------44444444----------|
E-----------------------------------|

and then the fourth time you just go:

G-------------------------------------------|
D---------22222222--------22224444----------|
A-22222222--------44444444--------222222222-|
E-------------------------------------------|

then the guitar comes on the second verse:

e-----------------------------------| x3
B-----------------------------------|
G-----------------------------------|
D---------99-999-966-666-699-999-9--|
A-99-999-977-777-744-444-477-777-7--|
E-77-777-7--------------------------|

and then the fourth time you just go:
[ Tab from: http://www.guitartabs.cc/tabs/b/blink_182/party_song_tab_ver_6.html ]
e----------------------------------------------|
B----------------------------------------------|
G----------------------------------------------|
D---------99-999-966-666-699-91111-11----------|
A-99-999-977-777-744-444-477-79-9--9-99-999-99-|
E-77-777-7---------------------------77-777-77-|

prechorus (and then i saw her standing there) part:

e--------------------------------------------|
B--------------------------------------------|
G--------------------------------------------|
D-4~~----2~h1-------2~h1------2~h1------2----|h1
A--------------2~~-------2~~-------2~~-------|
E--------------------------------------------|

(and then you'll discover this girls not the one) part:
e-------------------| x3
B-------------------|
G-------------------|
D-44444-----66666---|
A-22222-----44444---|
E-------------------|
P.M....     .....

and then the fourth time is:

e-------------|
B-------------|
G-------------|
D-44444-----6-|
A-22222-----4-|
E-------------|
P.M....     .

Chorus (some girls try too hard)part:

e-------------------------------------|
B-------------------------------------|
G-------------------------------------|
D-4-4-4--4~2~-1~----6-6-6--4~2~-1~----|
A-2-2-2---------4~--4-4-4---------4~--|
E-------------------------------------|

 ORDER OF THE SONG:
   VERSE X2
   PRECHORUS
   CHORUS
   VERSE
   PRECHORUS
   CHORUS
   ENDING CHORUS
Comments