Blink 182 - Party Song Chords & Tabs

 

Party Song Chords & Tabs

Blink 182 Chords & Tabs

Version: 5 Type: Tab 0 ratings
1 star 2 stars 3 stars 4 stars 5 stars
comments

Party Song Tab

Blink 182 - The Party Song
Tabbed by: Jordan Smith (aka Senn)

This is my first shot at writing a tab, hope you enjoy!  Comments or 
questions can be sent to Senn_@hotmail.com.

RIFF 1
e|----------------------------------------------------------------
B|----------------------------------------------------------------  x3
G|-----------------9-9-9---9-9-9---6-6-6---6-6-6---9-9-9---9-9-9--
D|-9-9-9---9-9-9---9-9-9---9-9-9---6-6-6---6-6-6---9-9-9---9-9-9--
A|-9-9-9---9-9-9---7-7-7---7-7-7---4-4-4---4-4-4---7-7-7---7-7-7--
E|-7-7-7---7-7-7--------------------------------------------------

e|----------------------------------------------------------------
B|----------------------------------------------------------------
G|-----------------9-9-9---9-9-9---6-6-6---6-6-6---9-9-9---9-9-9--
D|-9-9-9---9-9-9---9-9-9---9-9-9---6-6-6---6-6-6---9-9-9--111111--
A|-9-9-9---9-9-9---7-7-7---7-7-7---4-4-4---4-4-4---7-7-7---9-9-9--
E|-7-7-7---7-7-7--------------------------------------------------

e|----------------------------------------------------------------
B|----------------------------------------------------------------
G|----------------------------------------------------------------
D|-9-9-9-9-9-9-9-9------------------------------------------------
A|-9-9-9-9-9-9-9-9------------------------------------------------
E|-7-7-7-7-7-7-7-7------------------------------------------------


RIFF 2

e|-----------------------------------
B|-----------------------------------
G|-----------------------------------
D|-----------------------------------
A|-9--7-6-----7-6-----7-6------------
E|--------7-------7-------7---6-7-9--
Clean                              
[ Tab from: http://www.guitartabs.cc/tabs/b/blink_182/party_song_tab_ver_5.html ]
e|---------------------------------------------------------------
B|---------------------------------------------------------------
G|---------------6-6-6-6-6-6---9-9-9-9-9-9---1111111111----------
D|-9-9-9-9-9-9---6-6-6-6-6-6---9-9-9-9-9-9---1111111111----------
A|-9-9-9-9-9-9---4-4-4-4-4-4---7-7-7-7-7-7----9-9-9-9-9----------
E|-7-7-7-7-7-7---------------------------------------------------
Distorted - Palm Mute

e|---------------------------------------------------------------
B|---------------------------------------------------------------
G|---------------6-6-6-6-6-6---9-9-9-9-9-9---11------------------
D|-9-9-9-9-9-9---6-6-6-6-6-6---9-9-9-9-9-9---11------------------
A|-9-9-9-9-9-9---4-4-4-4-4-4---7-7-7-7-7-7----9------------------
E|-7-7-7-7-7-7---------------------------------------------------


RIFF 3
(this part I think has 2 guitars, part 1 is the most audible, and 
I'm taking a shot in the dark as to what's in the background.  It
sounds good though!)

GUITAR 1
e|----------------------------------------------------------------
B|----------------------------------------------------------------
G|----------------------------------------------------------------
D|----------------------------------------------------------------
A|----------------------------------------------------------------
E|-12-11-9-9---12-11-9-7---12-11-9-9---12-11-9-7------------------

GUITAR 2
e|----------------------------------------------------------------
B|----------------------------------------------------------------
G|-----------------------------6-6-6-6-6-6---9-9-9-9-9-9----------
D|-9-9-9-9-9-9---9-9-9-9-9-9---6-6-6-6-6-6---9-9-9-9-9-9----------
A|-9-9-9-9-9-9---9-9-9-9-9-9---4-4-4-4-4-4---7-7-7-7-7-7----------
E|-7-7-7-7-7-7---7-7-7-7-7-7--------------------------------------

End on this at end of the song.
e|----
B|----
G|----
D|-9--
A|-9--
E|-7--

BREAKDOWN
Riff 1 - Distorted/Palm Mute
Riff 1 - Distorted
Riff 2
Riff 3 - Distorted
Riff 1 - Distorted
Riff 2
Riff 3 - Distorted
Riff 3 - Distorted
Comments