Blink 182 - Party Song Chords & Tabs

 

Party Song Chords & Tabs

Blink 182 Chords & Tabs

Version: 2 Type: Tab 0 ratings
1 star 2 stars 3 stars 4 stars 5 stars
comments

Party Song Tab

blink 182-party song.
 Tabbed by matt parish-muttly1290@hotmail.com.
  
palm mute
--------------------------------------------------------------------------------
----------------------------------------------------------------------------------
-------------------9999999999--666666666666--999999999999----- 
-9999999999--9999999999--666666666666--999999999999------
-9999999999--7777777777--444444444444--777777777777------ 
-7777777777------------------------------------------------------------------ 

heavy distorsion
 --------------------------------------------------------------------------------
----------------------------------------------------------------------------------
-------------------9999999999--666666666666--999999999999----- 
-9999999999--9999999999--666666666666--999999999999------
-9999999999--7777777777--444444444444--777777777777------ 
-7777777777------------------------------------------------------------------ 

 
 
[ Tab from: http://www.guitartabs.cc/tabs/b/blink_182/party_song_tab_ver_2.html ]
Chorus 
---------------------------------------------------- 
---------------------------------------------------- 
--------------------------------------------------- 
----------------------------------------------------
-9--7--6-----7--6-----7--6-----7--6------------ 
------------7--------7--------7--------7-----------

----------------------------------------------------------------------
----------------------------------------------------------------------
-------------------9-9-9-9-9-9----6-6-6-6-6-6--9-9-9-9-9-9-
--9-9-9-9-9-9---9-9-9-9-9-9---6-6-6-6-6-6--9-9-9-9-9-9--
--9-9-9-9-9-9---7-7-7-7-7-7---4-4-4-4-4-4--7-7-7-7-7-7--
--7-7-7-7-7-7------------------------------------------------------



----------------------------------------------------------------------------- 
------------------------------------------------------------------------------ 
------------------------------------------------------------------------------- 
------------------------------------------------------------------------------ 
--9-7-6---7-6-------7-6----7-6-------7-6-----7-6------7-6---7-6---- 
---------9------9-7-------9-------9-7-------9--------9-7------9-----9-7
umm yea i think thats it 
:: Ultimate Guitar Archive :: 
http://www.ultimate-guitar.com 



Comments