Blink 182 - Palmadillo Chords & Tabs

 

Palmadillo Chords & Tabs

Blink 182 Chords & Tabs

Version: 2 Type: Tab 0 ratings
1 star 2 stars 3 stars 4 stars 5 stars
comments

Palmadillo Tab

   
Gtr I (E A D G B E) Standard Tuning
Blink 182 Rocks

  Q=100
 4/4
  Gtr I
|-------5~-----------0~--2----------------------------------------|
|-----7---7--------3---3---3--7-7-5-5-5-5-3hold--2-3-7-3-2-3-3----|
|---7-------7----0------------7-7-6-6-5-5-2hold--2-3-7-3-2-2-2----|
|-0------------0--------------------------------------------------|
|-----------------------------------------------------------------|
|-----------------------------------------------------------------|

[ Tab from: http://www.guitartabs.cc/tabs/b/blink_182/palmadillo_tab_ver_2.html ]
|-------5-------7-7--5----|-------0----2----3-3--2----|--------------|--------|
|-----7----7----7-7--5----|-----3----3---3--3-3--3----|-2-3--7--3-2--|-3-3----|
|---7--------7------------|---0-----------------------|-2-3--7--3-2--|-2-2----|
|-0-----------------------|-0-------------------------|--------------|--------|
|-------------------------|---------------------------|--------------|--------|
|-------------------------|---------------------------|--------------|--------|

                                       D  G G A D
|-2-----2-----3-----3-----2-----0------2--3-3-0-2--------------|
|---3-----3-----3-----3-----3-----3----3--3-3-2-3-2-3-/7\-3----|
|-----2-----2-----2-----2-----0-----0--2--0-0-2-2-2-3-/7\-2----|
|--------------------------------------0--0-0-2-0--------------|
|-----------------------------------------2-2------------------|
|-----------------------------------------3-3------------------|
Comments