Blink 182 - Online Songs Chords & Tabs

 

Online Songs Chords & Tabs

Blink 182 Chords & Tabs

Version: 8 Type: Tab 0 ratings
1 star 2 stars 3 stars 4 stars 5 stars
comments

Online Songs Tab

   
Online Songs-Blink 182
take off your pants and jacket

intro/verse: just bass
guitar comes in (clean)

e--------------------------------------------------------------
b--------------------------------------------------------------
g--------------------------------------------------------------
d--------------------------------------------------------------
a---4------7---4-----5-----5---5-----4-----7---4-----5-----5---
e-5---5------5---5-5---5-5---5---5-5---5-5---5---5-0---0-0---0-

e--------------------------------------------------------------
b--------------------------------------------------------------
g--------------------------------------------------------------
d--------------------------------------------------------------
a---4-----7---4-----5-----5---5-----4-----7---4---2-ring-------
e-5---5-5---5---5-5---5-5---5---5-5---5-5---5---0-0------------

interlude: pm low E string

e--------------------------------------------------------------
b--------------------------------------------------------------
g--------------------------------------------------------------
d--------------------------------------------------------------
a---4-----7---4-----5-----5---5-----4-----7---4-----5-----5---5
e-5---5-5---5---5-5---5-5---5---5-5---5-5---5---0-0---0-0---0--

e--------------------------------------------------------------
b--------------------------------------------------------------
g--------------------------------------------------------------
d--------------------------------------------------7--7--7--0--
a---4-----7---4-----5-----5---5-----4-----7---4----5--5--5--0--
e-5---5-5---5---5-5---5-5---5---5-5---5-5---5---0-0------------

verses: bass

e--------------------------------------------------------------
b--------------------------------------------------------------
g--------------------------------------------------------------
d-7------------------------------------------------------------
a-x----ring----------------------------------------------------
e-5------------------------------------------------------------

pick slide x~~~~~\x~~~~~~\
Chorus #1 (x2)

e--------------------------------------------------------------
b--------------------------------------------------------------
g--------------------------------------------------------------
d-7--7--7-7-7-7---------------9--9--9-9-9-7-7--7--7-7-7-7------
a-5--5--5-5-5-5-7--7--7-7-7-7-7--7--7-7-7-5-5--5--5-5-5-5------
e---------------5--5--5-5-5-5----------------------------------

Chorus #2

e--------------------------------------------------------------
b--------------------------------------------------------------
g--------------------------------------------------------------
d-7--7--7-7-7-7---------------------9-9-9-9-7--7--7-7-7-7------
a-5--5--5-5-5-5-7--7--7-7-7-7-pause-7-7-7-7-5--5--5-5-5-5------
e---------------5--5--5-5-5-5----------------------------------

Bridge:

e--------------------------------------------------------------
b--------------------------------------------------------------
g--------------------------------------------------------------
d-----------------7--7-----------------------------------------
a-4--4------------5--5------------7-7-7-7-7-7-7---2-2-2-2-2-2-2
e-2--2----------------------------5-5-5-5-5-5-5-0-0-0-0-0-0-0-0

e--------------------------------------------------------------
b--------------------------------------------------------------
g--------------------------------------------------------------
d-----------------7-7-7-7-7-7-7-0------------------------------
a-4-4-4-4-4-4-4-0-5-5-5-5-5-5-5-0-7-7-7-7-7-7-7-7-2-2-2-2-2-2-2
e-2-2-2-2-2-2-2-------------------5-5-5-5-5-5-5-5-0-0-0-0-0-0-0

outro bar:
[ Tab from: http://www.guitartabs.cc/tabs/b/blink_182/online_songs_tab_ver_8.html ]
e--------------------------------------------------------------
b--------------------------------------------------------------
g--------------------------------------------------------------
d-------------7------------------------------------------------
a-4--4--4-4---5-let-ring---------------------------------------
e-2--2--2-2-0--------------------------------------------------

thatŐs all
trevor jones
timmy91199@yahoo.ca

==================================================================

ONLINE SONGS - Blink 182


Tabbed By: Danny Matteson (Rawkout37@aol.com)

Standard Tuning: EADGBE

Intro Pt. 1                Intro Pt.2
E---------------------------------------------------------
B---------------------------------------------------------
G---------------------------------------------------------
D-------------0---0-0-------------------------------------
A-0-0---7---0---0-----------0-0---7---7-------------------
E-----9---9---------------------9---9---------------------

Riff A (Palm Mute)         Riff A (Ending)
E---------------------------------------------------------
B--------------------------10-10-10-10--------------------
G---------------------------9--9--9--9--------------------
D---------------------------7--7--7--7--------------------
A-0-4-0-7-4-0-5-0-5-5-------------------------------------
E---------------------------------------------------------

Bridge (Hold Through Verse)
E---------------------------------------------------------
B---------------------------------------------------------
G---------------------------------------------------------
D-7--------------------------------------------------------
A-7--------------------------------------------------------
E-5--------------------------------------------------------

Riff B
E---------------------------------------------------------
B---------------------------------------------------------
G-7-7-7-7-7-----------9-9-9-9-9-7-7-7-7-7-----------------
D-7-7-7-7-7-7-7-7-7-7-9-9-9-9-9-7-7-7-7-7-----------------
A-5-5-5-5-5-7-7-7-7-7-7-7-7-7-7-5-5-5-5-5-----------------
E-----------5-5-5-5-5-------------------------------------

Riff C Pt.1
E----------------------------------------------------------
B----------------------------------------------------------
G-----7-7--------------------------7-7-----------9-9-9-9-9-
D-4-4-7-7-7-7-7-7-7-2-2-2-2-2--4-4-7-7-7-7-7-7-7-9-9-9-9-9-
A-4-4-5-5-7-7-7-7-7-2-2-2-2-2--4-4-5-5-7-7-7-7-7-7-7-7-7-7-
E-2-2-----5-5-5-5-5-0-0-0-0-0--2-2-----5-5-5-5-5-----------

Riff C Pt.2
E----------------------------------------------------------
B----------------------------------------------------------
G-----------7-7-7-7-7--------------------------------------
D-4-4-4-4-4-7-7-7-7-7-7-7-7-7-7-2-2-2-2-2------------------
A-4-4-4-4-4-5-5-5-5-5-7-7-7-7-7-2-2-2-2-2------------------
E-2-2-2-2-2-----------5-5-5-5-5-0-0-0-0-0------------------

Riff C Pt.2 (Cont’d)
E---------------------------------------------------------
B---------------------------------------------------------
G-----------7-7-7-7-7-----------9-9-9-9-9-----------------
D-4-4-4-4-4-7-7-7-7-7-7-7-7-7-7-9-9-9-9-9-----------------
A-4-4-4-4-4-5-5-5-5-5-7-7-7-7-7-7-7-7-7-7-----------------
E-2-2-2-2-2-----------5-5-5-5-5---------------------------

Ending
E---------------------------------------------------------
B---------------------------------------------------------
G---------x-7---------------------------------------------
D-4-4-4-4-x-7---------------------------------------------
A-4-4-4-4-x-5---------------------------------------------
E-2-2-2-2-------------------------------------------------

Order:
Intro Pt.1      x 3
Intro Pt.2      x 1
Riff A          x 4
Riff A Ending   x 1
Bridge          x 1
Riff A          x 4
Riff A Ending   x 1
Bridge          x 1
Pick Slide
Riff B          x 2
Bridge          x 1 
Pick Slide      
Riff B          x 4
Riff C Pt.1     x 1
Riff C Pt.2     x 1
Riff B          x 4
Ending 

That should be just about 100% correct if you think you found an error, you 
need help, or if you just want to tell me ridiculous stories about having sex 
with my uncle please feel free to e-mail me at Rawkout37@aol.com.
Comments