Blink 182 - Online Songs Chords & Tabs

 

Online Songs Chords & Tabs

Blink 182 Chords & Tabs

Version: 6 Type: Tab 0 ratings
1 star 2 stars 3 stars 4 stars 5 stars
comments

Online Songs Tab

   
Artist:Blink 182
Title:Online Songs
Standard Tuning: EADGBE

Intro Pt. 1                Intro Pt.2
E---------------------------------------------------------|
B---------------------------------------------------------|
G---------------------------------------------------------|
D-------------0---0-0-------------------------------------|
A-0-0---7---0---0-----------0-0---7---7-------------------|
E-----9---9---------------------9---9---------------------|

Riff A (Palm Mute)         Riff A (Ending)
E---------------------------------------------------------|
B--------------------------10-10-10-10--------------------|
G---------------------------9--9--9--9--------------------|
D---------------------------7--7--7--7--------------------|
A-0-4-0-7-4-0-5-0-5-5-------------------------------------|
E---------------------------------------------------------|

Bridge (Hold Through Verse)
E-----------------------------------------------------------|
B-----------------------------------------------------------|
G-----------------------------------------------------------|
D-7---------------------------------------------------------|
A-7---------------------------------------------------------|
E-5---------------------------------------------------------|

Riff B
E---------------------------------------------------------|
B---------------------------------------------------------|
G-7-7-7-7-7-----------9-9-9-9-9-7-7-7-7-7-----------------|
D-7-7-7-7-7-7-7-7-7-7-9-9-9-9-9-7-7-7-7-7-----------------|
A-5-5-5-5-5-7-7-7-7-7-7-7-7-7-7-5-5-5-5-5-----------------|
E-----------5-5-5-5-5-------------------------------------|
[ Tab from: http://www.guitartabs.cc/tabs/b/blink_182/online_songs_tab_ver_6.html ]
Riff C Pt.1
E----------------------------------------------------------|
B----------------------------------------------------------|
G-----7-7--------------------------7-7-----------9-9-9-9-9-|
D-4-4-7-7-7-7-7-7-7-2-2-2-2-2--4-4-7-7-7-7-7-7-7-9-9-9-9-9-|
A-4-4-5-5-7-7-7-7-7-2-2-2-2-2--4-4-5-5-7-7-7-7-7-7-7-7-7-7-|
E-2-2-----5-5-5-5-5-0-0-0-0-0--2-2-----5-5-5-5-5-----------|

Riff C Pt.2
E----------------------------------------------------------|
B----------------------------------------------------------|
G-----------7-7-7-7-7--------------------------------------|
D-4-4-4-4-4-7-7-7-7-7-7-7-7-7-7-2-2-2-2-2------------------|
A-4-4-4-4-4-5-5-5-5-5-7-7-7-7-7-2-2-2-2-2------------------|
E-2-2-2-2-2-----------5-5-5-5-5-0-0-0-0-0------------------|

Riff C Pt.2
E---------------------------------------------------------|
B---------------------------------------------------------|
G-----------7-7-7-7-7-----------9-9-9-9-9-----------------|
D-4-4-4-4-4-7-7-7-7-7-7-7-7-7-7-9-9-9-9-9-----------------|
A-4-4-4-4-4-5-5-5-5-5-7-7-7-7-7-7-7-7-7-7-----------------|
E-2-2-2-2-2-----------5-5-5-5-5---------------------------|

Ending
E---------------------------------------------------------|
B---------------------------------------------------------|
G---------x-7---------------------------------------------|
D-4-4-4-4-x-7---------------------------------------------|
A-4-4-4-4-x-5---------------------------------------------|
E-2-2-2-2-------------------------------------------------|

Order:
Intro Pt.1      x 3
Intro Pt.2      x 1
Riff A          x 4
Riff A Ending   x 1
Bridge          x 1
Riff A          x 4
Riff A Ending   x 1
Bridge          x 1
Pick Slide
Riff B          x 2
Bridge          x 1
Pick Slide
Riff B          x 4
Riff C Pt.1     x 1
Riff C Pt.2     x 1
Riff B          x 4
Ending
Comments