Blink 182 - Online Songs Chords & Tabs

 

Online Songs Chords & Tabs

Blink 182 Chords & Tabs

Version: 5 Type: Tab 0 ratings
1 star 2 stars 3 stars 4 stars 5 stars
comments

Online Songs Tab

Tabbed by ToRK

Band: Blink182
Song: Online Songs
Album: TOYPAJ
E-mail: eved05@stdavids.co.za

This is basically the whole song minus the blurred solo right at the beginning .

This riff comes after Verse 1:
  Repeat 4 times  | then afterwards..
e ----------------|------------
B ----------------|------------
G ----------------|------------
D -----2-2---0-0--|--0-0-0-0---
A –3b4-----3------|----------0-
E ----------------|------------

Verse 2: No guitar!

This riff comes after Verse 2:
  Repeat 4 times  | then afterwards..
e ----------------|------------
B ----------------|------------
G ----------------|------------
D -----2-2---0-0--|--0-0-0-0---
A –3b4-----3------|----------0-
E ----------------|------------
[ Tab from: http://www.guitartabs.cc/tabs/b/blink_182/online_songs_tab_ver_5.html ]
“Please don’t remind me, put your past behind me”
e -------|--------------------------
B -------|--------------------------
G -pick--|--------------------------
D scratch|--------------------77777-
A –------|--77777-22222-99999-55555-
E -------|--55555-00000-77777-------

Verse 3: No Guitar!!

“Please don’t remind me, put your past behind me”
e -------|--------------------------
B -------|--------------------------
G -pick--|--------------------------
D scratch|--------------------77777-
A –------|--77777-22222-99999-55555-
E -------|--55555-00000-77777-------





“Nanana, nanana, nanananana, I just forgot you were there..”
e --------------------------------
B -------------------------------
G ---------------7777-----------------
D -777-777-------7777----------------------
A -777-777-77-99-5555-----------------
E -555-555-55-77--------------------------

That’s about it. Send any comments, correction or praises to my e-mail.

Later

ToRK		(eved05@stdavids.co.za)
Comments