Blink 182 - Online Songs Chords & Tabs

 

Online Songs Chords & Tabs

Blink 182 Chords & Tabs

Version: 4 Type: Tab 0 ratings
1 star 2 stars 3 stars 4 stars 5 stars
comments

Online Songs Tab

Song: Online Songs
Artist: Blink 182
Album: Take Off Your Pants and Jacket
Transcripter: x_myzery_x

Hey, i don't really know the whole song but i know the part where it goes " And She says na na na na na.....". Yeah and this is the correct version, trust me.

And she said Na Na Na Na Na.....
[ Tab from: http://www.guitartabs.cc/tabs/b/blink_182/online_songs_tab_ver_4.html ]
e|-----------------------------|
B|-----------------------------|
G|-------7-7-------------------|
D|--4-4--7-7--7-7-7-7--2-2-2-2-|   x2
A|--4-4--5-5--7-7-7-7--2-2-2-2-|
E|--2-2-------5-5-5-5--0-0-0-0-|

e|-------------------------------------|
B|-------------------------------------|
G|-----------7-7-7-7-------------------|
D|--4-4-4-4--7-7-7-7--7-7-7-7--2-2-2-2-|   x2
A|--4-4-4-4--5-5-5-5--7-7-7-7--2-2-2-2-|
E|--2-2-2-2-----------5-5-5-5--0-0-0-0-|

And there it is.....
Comments