Blink 182 - Online Songs Chords & Tabs

 

Online Songs Chords & Tabs

Blink 182 Chords & Tabs

Version: 3 Type: Tab 0 ratings
1 star 2 stars 3 stars 4 stars 5 stars
comments

Online Songs Tab

Artist: Blink 182	
Song : Online Songs	
Album: Take Off Your Pants and Jacket
Tabbed by: Andrew

Standard Tuning

Intro,clean, quite fast
            
E----------------------------------------------------------------------------------------------------------
B---------------------------------------------------------------------------------------------------------
G---------------------------------------------------------------------------------------------------------
D--------------2----------------------------------------------------------------------------------------
A-----0-4-0-0-----0-4-0-0-5-0-0-5-0-----------------------------------------------------------------
E----------------------------------------------------------------------------------------------------------

Intro pt. 2 distortion - palm muted
[ Tab from: http://www.guitartabs.cc/tabs/b/blink_182/online_songs_tab_ver_3.html ]
E----------------------------------------------------------------------------------------------------------
B----------------------------------------------------------------------------------------------------------
G----------------------------5---5---5-----------------------------------------------------------
D------2---------------------5---5---5------(let ring)------------------------------------------- 
A-0-4-----4--5--5-5----------7---7---7------------------------------------------------------------
E----------------------------------------------------------------------------------------------------------

Chorus 

E----------------------------------------------------------------------------------------------------------
B----------------------------------------------------------------------------------------------------------
G--------------------7----------9----5-----------------------------------------------------------------
D--------------------7----7-----9--- 5-----------------------------------------------------------------
A---pick slide-------5----7-----7----7-----------------------------------------------------------------
E-------------------------5-----------------------------------------------------------------------------

Interlude (na na na na na part)

E----------------------------------------------------------------------------------------------------------
B----------------------------------------------------------------------------------------------------------
G----------7---------------------------------------------------------------------------------------------
D----4-----7-------7-----2------------------------------------------------------------------------------
A--- 4-----5------ 7---- 2-------------------------------------------------------------------------------
E----2-------------5-----0-------------------------------------------------------------------------------


Song Order:

Intro 
Intro pt. 2
Intro pt. 2
Chorus
Chorus
Interlude
Chorus


Comments