Blink 182 - Online Songs Chords & Tabs

 

Online Songs Chords & Tabs

Blink 182 Chords & Tabs

Version: 1 Type: Tab 1 rating
1 star 2 stars 3 stars 4 stars 5 stars
comments

Online Songs Tab

Blink 182
Online Songs
Take Off Your Pants And Jacket
Tabbed By James Low whatisaturnip@yahoo.co.uk
Standard Tuning (EADGBE)

--------------------------------------------------------
--------------------------------------------------------
--------------------------------------------------------
----------2---------------------------------------------
--0-4-0-0---0-4-0-0-5-0-0-5-0-5-0-----------------------
--------------------------------------------------------
[ Tab from: http://www.guitartabs.cc/tabs/b/blink_182/online_songs_tab.html ]
--------------------------------------------------------
--------------------------------------------------------
----------------------7-7-7-7---------------------------
----------2-----------7-7-7-7---------------------------
--0-4-0-0---0-4-0-0-0-5-5-5-5---------------------------
--------------------------------------------------------

--------------------------------------------------------
--------------------------------------------------------
------------7-----9--7----------------------------------
------------7--7--9--7----------------------------------
-pick-slide-5--7--7--5----------------------------------
---------------5----------------------------------------

--------------------------------------------------------
--------------------------------------------------------
------7-------9-----------------------------------------
--4---7---7---9-----------------------------------------
--4---5---7---7-----------------------------------------
--2-------5---------------------------------------------
Comments