Blink 182 - Obvious Chords & Tabs

 

Obvious Chords & Tabs

Blink 182 Chords & Tabs

Version: 6 Type: Tab 0 ratings
1 star 2 stars 3 stars 4 stars 5 stars
comments

Obvious Tab

   
This song is really awsome so be sure to play it right. Its a pretty easy song
to play and its a really great song so that makes it all the better to play.


Blink182's
Obvious

Intro
E|-------------------|
B|-------------------| x6
G|-6-6--6-9--9-9--9--|
D|-6-6--6-9--9-9--9--|
A|-4-4--4-7--7-7--7--|
E|-------------------|

Verse
E|-------------------|
B|-------------------|
G|-9---11---12---14--|
D|-9---11---12---14--|
A|-7---9----11---12--|
E|-------------------|

Chorus
E|----------------------------|
B|----------------------------| x2
G|-9~-------------------------|
D|-9~-------------------------|
A|-7~---------000-------------|
E|----444-222-----000-2222-0~-|

Intro
E|-------------------|
B|-------------------| x4
G|-6-6--6-9--9-9--9--|
D|-6-6--6-9--9-9--9--|
A|-4-4--4-7--7-7--7--|
E|-------------------|
[ Tab from: http://www.guitartabs.cc/tabs/b/blink_182/obvious_tab_ver_6.html ]
Verse
E|-------------------|
B|-------------------|
G|-9---11---12---14--|
D|-9---11---12---14--|
A|-7---9----11---12--|
E|-------------------|

Chorus
E|----------------------------|
B|----------------------------| x4
G|-9~-------------------------|
D|-9~-------------------------|
A|-7~---------000-------------|
E|----444-222-----000-2222-0~-|

~Break~

Solo
E|-------------------------------|
B|-------------------------------| x6
G|-999-------666--101010-99-1010-|
D|-999--777--666--101010-99-1010-|
A|-777--777--444--8-8-8--77-8-8--|
E|------555----------------------|

Ending
E|--------------------------------------|
B|--------------------------------------| x4
G|-99999999-88888888-99999999-----------|
D|-99999999-88888888-99999999-9999-7777-|
A|-77777777-66666666-77777777-9999-7777-|
E|----------------------------7777-5555-|

End on
E|----|
B|----|
G|-9~-|
D|-9~-|
A|-7~-|
E|----|
Comments