Blink 182 - Obvious Chords & Tabs

 

Obvious Chords & Tabs

Blink 182 Chords & Tabs

Version: 3 Type: Tab 0 ratings
1 star 2 stars 3 stars 4 stars 5 stars
comments

Obvious Tab

posted by:I_Brake_for_blink182

e-mail @: ibrakeforblink_182@yahoo.com





Intro (Sounds Perfect and also looks like Tom plays this live)
E--------------------------------------
B--------------------------------------
G--------------------------------------
D--5---5--5-5--5-5-5--5----------------
A--2---2--2-2--3-3-3--3----------------
E--0---0--0-0--------------------------


Verse
E---------------------------------------------------------------------------
B---------------------------------------------------------------------------
G---------------------------------------------------------------------------
D--5--------------------5------------------5---------------------5----------
A--2--------------------3------------------2---------------------3----------
E--0------------------------------------------------------------------------
[ Tab from: http://www.guitartabs.cc/tabs/b/blink_182/obvious_tab_ver_3.html ]
Chorus 
E---------------------------------------------------------------------
B---------------------------------------------------------------------
G---------------------------------------------------------------------
D--5-5-5-5-5-5--------------------------------------------------------
A--2-2-2-2-2-2--------------------------------------------------------
E--0-0-0-0-0-0---------4-4-4--2-2-2--5-5-5---0-0-0--1-1-1p0-----------

Outro 
E--------------------------------------------------------------------------------------------------
B---------------------------------------------------------------------------------------------------
G--5-5-5-5-5-5-5-5---4-4-4-4-4-4-4-4---5-5-5-5-5-5-5-5----------------------------------------------
D--5-5-5-5-5-5-5-5---5-5-5-5-5-5-5-5---5-5-5-5-5-5-5-5---5-5-5-5-5--3-3-3-3-3-----------------------
A--3-3-3-3-3-3-3-3---2-2-2-2-2-2-2-2---3-3-3-3-3-3-3-3---5-5-5-5-5--3-3-3-3-3-----------------------
E----------------------------------------------------------------------------3-3-3-3-3--1-1-1-1-1---


                 BLINK 182 KICKS @$$
Comments