Blink 182 - Obvious Chords & Tabs

 

Obvious Chords & Tabs

Blink 182 Chords & Tabs

Version: 12 Type: Tab 0 ratings
1 star 2 stars 3 stars 4 stars 5 stars
comments

Obvious Tab

   
-----------------------------------------------------------------
Obvious - Blink 182

Tabbed by: VASKEN MARKARIAN
Email: lasbdo@yahoo.com

THIS IS RIGHT!!!!!



VERSION 5 IS THE RIGHT ONE BUT I CONVERTED IT TO DROP Cb  (OR WHAT EVERYONE SAIS AS DROP
C#)



Tuning: Drop Cb (Cb,G#,Cb,F#,Bb,D#)  

THE ACTUAL TUNING THAT TOM USES IS 1 & HALF STEPS DOWN AND VERSION 5 HAS THAT AND
VERSION 5 IS CORRECT. BUT I CAN CONVERT IT TO DROP Cb.

ARE YOU CONFUSED ABOUT TUNING? go to
http://www.ultimate-guitar.com/lessons/for_beginners/tuning_your_guitar_by_ear.html

This song i think has two guitars but this tab is for 1 guitar except for the verse
bridge and outro where i showed two guitars!


INTRO/PRE-VERSE

(listen to the song for the rythem)
D#|----------------------------|
Bb|----------------------------|
F#|----2----2---2--------------|  x6       
Cb|----3----3---3-3---3-3---3--|   
G#|----0----0---0-3---3-3---3--|
Cb|----0----0---0-3---3-3---3--|

VERSE 1
(i lined up guitar 1 with guitar 2  for the timing)
Guitar 1
D#|-------------------------------------------------------------------------|
Bb|-------------------------------------------------------------------------|
F#|--------2~~~-------------------------------------------------------------|
Cb|--------3~~~------------3~~----------------------------------------------|
G#|--------0~~~------------3~~~---------------------------------------------|
Cb|--------0~~~------------3~~~---------------------------------------------|


Guitar 2
D#|-------------------------------------------------------------------------|
Bb|-------------------------------------------------------------------------|
F#|-------10---------------12---------------14---------------15-------------|
Cb|--------x----------------x----------------x----------------x-------------|
G#|--------8---------------10---------------12---------------13-------------|
Cb|-------------------------------------------------------------------------|


CHORUS 1

D#|-------------------------------------------------------------------------|
Bb|-------------------------------------------------------------------------|
F#|-------------------------------------------------------------------------|
Cb|-------------------------------------------------------------------------|
G#|-------------------------------------------------------------------------|
Cb|------3~~~--------777-555-888-000-2222-----------------------------------|


D#|-------------------------------------------------------------------------|
Bb|-------------------------------------------------------------------------|
F#|-------------------------------------------------------------------------|
Cb|-------------------------------------------------------------------------|
G#|-------------------------------------------------------------------------|
Cb|------3(x16)------777-555-888-000-2222-----------------------------------|


INTRO/PRE-VERSE

D#|----------------------------|
Bb|----------------------------|
F#|----2----2---2--------------|  x4         
Cb|----3----3---3-3---3-3---3--|   
G#|----0----0---0-3---3-3---3--|
Cb|----0----0---0-3---3-3---3--|


VERSE 2
Guitar 1
D#|-------------------------------------------------------------------------|
Bb|-------------------------------------------------------------------------|
F#|--------2~~~-------------------------------------------------------------|
Cb|--------3~~~-------------------------------------------------------------|
G#|--------0~~~-------------------------------------------------------------|
Cb|--------0~~~-------------------------------------------------------------|



Guitar 2
D#|-------------------------------------------------------------------------|
Bb|-------------------------------------------------------------------------|
F#|-------10-------------12------------14------------15---------------------|
Cb|--------x--------------x-------------x-------------x---------------------|
G#|--------8-------------10------------12------------13---------------------|
Cb|-------------------------------------------------------------------------|


CHORUS 2

D#|-------------------------------------------------------------------------|
Bb|-------------------------------------------------------------------------|
F#|-------------------------------------------------------------------------|
Cb|-------------------------------------------------------------------------|
G#|-------------------------------------------------------------------------|
Cb|------3~~~--------777-555-888-000-2222-----------------------------------|


D#|-------------------------------------------------------------------------|
Bb|-------------------------------------------------------------------------|
F#|-------------------------------------------------------------------------|
Cb|-------------------------------------------------------------------------|
G#|-------------------------------------------------------------------------|
Cb|------3(x16)------777-555-888-000-2222-----------------------------------|


D#|-------------------------------------------------------------------------|
Bb|-------------------------------------------------------------------------|
F#|-------------------------------------------------------------------------|
Cb|-------------------------------------------------------------------------|
G#|-------------------------------------------------------------------------|
Cb|------3(x16)------777-555-888-000-2222-----------------------------------|


D#|-------------------------------------------------------------------------|
Bb|-------------------------------------------------------------------------|
F#|-------------------------------------------------------------------------|
Cb|-------------------------------------------------------------------------|
G#|-------------------------------------------------------------------------|
Cb|------3(x16)------777-555-888-000-2222-----------------------------------|


		


		BRIDGE

WITH THIS I'LL SHOW THE 2 GUITARS.  THEIRS 2 PARTS TO THE BRIDGE!!!!!!!!

BRIDGE PART 1


Guitar 1
D#|------------------------------------------------------------------------|
Bb|------------------------------------------------------------------------|
F#|------------------------------------------------------------------------|
Cb|3~~~--------------------------------------------------------------------|
G#|0~~~--------------------------------------------------------------------|
Cb|------------------------------------------------------------------------|

D#|------------------------------------------------------------------------|
Bb|------------------------------------------------------------------------|
F#|------------------------------------------------------------------------|
Cb|--------------(PAUSE)---------------------------------------------------|
G#|------------------------------------------------------------------------|
Cb|------------------------------------------------------------------------|


[ Tab from: http://www.guitartabs.cc/tabs/b/blink_182/obvious_tab_ver_12.html ]
Guitar 2
D#|------------------------------------------------------------------------|
Bb|------------------------------------------------------------------------|
F#|-------------10-10-10----------------------11-11-11---10---11-11-11-----|
Cb|-------------10-10-10---8-8-8---11-11-11---11-11-11---10---11-11-11-----|
G#|--------------8--8--8---8-8-8---11-11-11----9--9--9----8----9--9--9-----|
Cb|------------------------8-8-8---11-11-11--------------------------------|

D#|------------------------------------------------------------------------|
Bb|------------------------------------------------------------------------|
F#|-------------10-10-10----------------------11-11-11---10---11-11-11-----|
Cb|-------------10-10-10---8-8-8---11-11-11---11-11-11---10---11-11-11-----|
G#|--------------8--8--8---8-8-8---11-11-11----9--9--9----8----9--9--9-----|
Cb|------------------------8-8-8---11-11-11--------------------------------|


BRIDGE PART 2

Guitar 1 

D#|------------------------------------------------------------|
Bb|------------------------------------------------------------|
F#|---------------3-3-3----------------------------------------|
Cb|----3--3--3----3-3-3----0--0--0----4--4--4----3---3---4--4--|
G#|----3--3--3----1-1-1----0--0--0----4--4--4----3---3---4--4--|
Cb|----3--3--3----3-3-3----0--0--0----4--4--4----3---3---4--4--|

D#|------------------------------------------------------------|
Bb|------------------------------------------------------------|
F#|---------------3-3-3----------------------------------------|
Cb|----3--3--3----3-3-3----0--0--0----4--4--4----3---3---4--4--|
G#|----3--3--3----1-1-1----0--0--0----4--4--4----3---3---4--4--|
Cb|----3--3--3----3-3-3----0--0--0----4--4--4----3---3---4--4--|

D#|------------------------------------------------------------|
Bb|------------------------------------------------------------|
F#|---------------3-3-3----------------------------------------|
Cb|----3--3--3----3-3-3----0--0--0----4--4--4----3---3---4--4--|
G#|----3--3--3----1-1-1----0--0--0----4--4--4----3---3---4--4--|
Cb|----3--3--3----3-3-3----0--0--0----4--4--4----3---3---4--4--|

D#|------------------------------------------------------------|
Bb|------------------------------------------------------------|
F#|---------------3-3-3----------------------------------------|
Cb|----3--3--3----3-3-3----0--0--0----4--4--4----3---3---4--4--|
G#|----3--3--3----1-1-1----0--0--0----4--4--4----3---3---4--4--|
Cb|----3--3--3----3-3-3----0--0--0----4--4--4----3---3---4--4--|


Guitar 2

D#|------------------------------------------------------------|
Bb|------------------------------------------------------------|
F#|----10-10-10----------------------11-11-11---10---11-11-11--|
Cb|----10-10-10---8-8-8---11-11-11---11-11-11---10---11-11-11--|
G#|-----8--8--8---8-8-8---11-11-11----9--9--9----8----9--9--9--|
Cb|---------------8-8-8---11-11-11-----------------------------|

D#|------------------------------------------------------------|
Bb|------------------------------------------------------------|
F#|----10-10-10----------------------11-11-11---10---11-11-11--|
Cb|----10-10-10---8-8-8---11-11-11---11-11-11---10---11-11-11--|
G#|-----8--8--8---8-8-8---11-11-11----9--9--9----8----9--9--9--|
Cb|---------------8-8-8---11-11-11-----------------------------|

D#|------------------------------------------------------------|
Bb|------------------------------------------------------------|
F#|----10-10-10----------------------11-11-11---10---11-11-11--|
Cb|----10-10-10---8-8-8---11-11-11---11-11-11---10---11-11-11--|
G#|-----8--8--8---8-8-8---11-11-11----9--9--9----8----9--9--9--|
Cb|---------------8-8-8---11-11-11-----------------------------|

D#|------------------------------------------------------------|
Bb|------------------------------------------------------------|
F#|----10-10-10----------------------11-11-11---10---11-11-11--|
Cb|----10-10-10---8-8-8---11-11-11---11-11-11---10---11-11-11--|
G#|-----8--8--8---8-8-8---11-11-11----9--9--9----8----9--9--9--|
Cb|---------------8-8-8---11-11-11-----------------------------|





OUTRO


Guitar 1
D#|------------------------------------------------------------------|
Bb|------------------------------------------------------------------|
F#|----------------------------------------------------------3-------|
Cb|--3---------------2---------------3------------2----------3-------|
G#|--3-(x16)---------3-(x16)---------3-(x16)------3-(x8)-----1-(x8)--|
Cb|--3---------------2---------------3------------2----------3-------|

D#|------------------------------------------------------------------|
Bb|------------------------------------------------------------------|
F#|----------------------------------------------------------3-------|
Cb|--3---------------2---------------3------------2----------3-------|
G#|--3-(x16)---------3-(x16)---------3-(x16)------3-(x8)-----1-(x8)--|
Cb|--3---------------2---------------3------------2----------3-------|

D#|------------------------------------------------------------------|
Bb|------------------------------------------------------------------|
F#|----------------------------------------------------------3-------|
Cb|--3---------------2---------------3------------2----------3-------|
G#|--3-(x16)---------3-(x16)---------3-(x16)------3-(x8)-----1-(x8)--|
Cb|--3---------------2---------------3------------2----------3-------|

D#|------------------------------------------------------------------|
Bb|------------------------------------------------------------------|
F#|----------------------------------------------------------3-------|
Cb|--3---------------2---------------3------------2----------3-------|
G#|--3-(x16)---------3-(x16)---------3-(x16)------3-(x8)-----1-(x8)--|
Cb|--3---------------2---------------3------------2----------3-------|




Guitar 2

(this i can barely here in the song but it sounds like this so here.)
D#|-----------------------------------------------------------------|
Bb|-----------------------------------------------------------------|
F#|-10-----------9-------12---------10------------9---------10------|
Cb|--x-(x16)-----x-(x8)---x-(x8)-----x-(x16)------x-(x8)-----x-(x8)-|
G#|--8-----------7-------10----------8------------7----------8------|
Cb|-----------------------------------------------------------------|


D#|-----------------------------------------------------------------|
Bb|-----------------------------------------------------------------|
F#|-10-----------9-------12---------10------------9---------10------|
Cb|--x-(x16)-----x-(x8)---x-(x8)-----x-(x16)------x-(x8)-----x-(x8)-|
G#|--8-----------7-------10----------8------------7----------8------|
Cb|-----------------------------------------------------------------|

D#|-----------------------------------------------------------------|
Bb|-----------------------------------------------------------------|
F#|-10-----------9-------12---------10------------9---------10------|
Cb|--x-(x16)-----x-(x8)---x-(x8)-----x-(x16)------x-(x8)-----x-(x8)-|
G#|--8-----------7-------10----------8------------7----------8------|
Cb|-----------------------------------------------------------------|

D#|-----------------------------------------------------------------|
Bb|-----------------------------------------------------------------|
F#|-10-----------9-------12---------10------------9---------10------|
Cb|--x-(x16)-----x-(x8)---x-(x8)-----x-(x16)------x-(x8)-----x-(X8)-|
G#|--8-----------7-------10----------8------------7----------8------|
Cb|-----------------------------------------------------------------|


END ON

D#|-----------|
Bb|-----------|
F#|---2~~~----|
Cb|---3~~~----|
G#|---0~~~----|
Cb|---0~~~----|





| / slide up
| \ slide down
| h hammer-on
| p pull-off
| ~ let the note keep going
| + harmonic
| x Mute note


HAVE FUN!!!  PLEASE
Comments