Blink 182 - Obvious Chords & Tabs

 

Obvious Chords & Tabs

Blink 182 Chords & Tabs

Version: 10 Type: Tab 0 ratings
1 star 2 stars 3 stars 4 stars 5 stars
comments

Obvious Tab

   
Blink 182-Blink 182
2003
Guitar Tabs
Tabed by Jacob (sk8aman23)
Obvious
All Guitars Tuned down 1 and 1/2 steps
There are two in this song, you can play the whole thing
on one, but during the Bridge, there is a rythm
and a lead going at the same time

Intro
Guitar 1
E|----------------------------------------------------|
B|----------------------------------------------------|
G|----------------------------------------------------|
D|--55555--555555-------------------------------------| 3x
A|--22222--333333-------------------------------------|
E|--00000--333333-------------------------------------|


Verses
Guitar 1
Clean with Flanger
E|----------------------------------------------------|
B|----------------------------------------------------|
G|-0-------0----------0---------0---------------------|
D|-5------/7---------/9-------/10---------------------|
A|----------------------------------------------------| 
E|----------------------------------------------------|

I tried to put the timing, but you can figure it out
Chours
Guitar 1
E|----------------------------------------------------|
B|----------------------------------------------------|
G|----------------------------------------------------|
D|----------------------------------------------------|
A|---------2220003333---------------------------------| 1 1/2x
E|-3------------------00022223333333333333333---------|
                             *
The second time round, play only until the Star (*)
Now play the intro again
Then the verse
and then the chours

Interlude
Guitar 1
E|---|
B|---|
G|---|
D|-5-|
A|-4-| 1x
E|---|
[ Tab from: http://www.guitartabs.cc/tabs/b/blink_182/obvious_tab_ver_10.html ]
Theres some tape effects also in there
Interlude continued
Guitar 1
E|----------------------------------------------------|
B|----------------------------------------------------|
G|-12-12-12-------------9-9-9--13-13-13-13-13-13-13---|
D|-12-12-12---10-10-10--9-9-9--13-13-13-13-13-13-13---|
A|-10-10-10---10-10-10--7-7-7--11-11-11-11-11-11-11---| 2x
E|-------------8--8--8------------------11------------|

Interlude continued again
Guitar 1
Double time feel
E|----------------------------------------------------|
B|----------------------------------------------------|
G|-------5-5-5----------------5-5---------------------|
D|-5-5-5-5-5-5-2-2-2---6-6-6--5-5-6-6-6---------------|
A|-5-5-5-3-3-3-2-2-2---6-6-6--3-3-6-6-6---------------| 4x
E|-3-3-3-3-3-3-0-0-0---4-4-4--3-3-4-4-4---------------|

Bridge
Guitar 1
E|---------------------------------------------------|
B|---------------------------------------------------|
G|-12-12-12-12-12-12-12-12-12-12-12-12-12-12-12-12---|
D|--x--x--x--x--x--x--x--x--x--x--x--x--x--x--x--x---|
A|-10-10-10-10-10-10-10-10-10-10-10-10-10-10-10-10---| 16x
E|---------------------------------------------------|

If this were to be like tabed at all the way, look at
it as four bars with this playing four times in each
That will make guitar 2 easer to understand

Guitar 2
E|-------2-2-2-------2-2-2---------------------|
B|-------3-3-3-------3-3-3-5-5-5---------------|
G|-------2-2-2-------2-2-2-5-5-5---------------|
D|-5-5-5-4-4-4-5-5-5-4-4-4-5-5-5---------------|
A|-5-5-5-5-5-5-5-5-5-5-5-5-3-3-3---------------| 16x
E|-3-3-3-2-2-2-3-3-3-2-2-2-3-3-3---------------|
        *     *     *     +

The stars represent one bar, so play that chord for one
bar then change to the next one,  at the last bar (4th)
there is a change in between the bar, which is where the plus
sign is. Obviously, im not showing correct timeing.
End on This
Guitar 1
E|---|
B|---|
G|---|
D|-5-|
A|-2-| 1x
E|-0-|
Comments