Blink 182 - Obvious Chords & Tabs

 

Obvious Chords & Tabs

Blink 182 Chords & Tabs

Version: 1 Type: Tab 0 ratings
1 star 2 stars 3 stars 4 stars 5 stars
comments

Obvious Tab

Obvious
~=Hold

Intro
1------------------------------------------------
2------------------------------------------------
3--------6-6--6-6--6-----------------------------
4---6-6--7-7--7-7--7-----------------------------
5---4-4--4-4--4-4--4-----------------------------
6--------5-5--5-5--5----------------------------- X6
Verse
1----------------------------------------------------
2----------------------------------------------------
3---9~---6~---9~---6~--------------------------------
4---9~---7~---9~---7~--------------------------------
5---7~---4~---7~---4~--------------------------------
6--------5~--------5~--------------------------------

Chorus
1---------------------------------------------------
2---------------------------------------------------
3---------------------------------------------------
4---2~---6-6-6-4-4-4-7-7-7-2-4----------------------
5---2~---6-6-6-4-4-4-7-7-7-2-4----------------------
6---0~---4-4-4-2-2-2-5-5-5-0-2---------------------- X2
[ Tab from: http://www.guitartabs.cc/tabs/b/blink_182/obvious_tab.html ]
Solo
1---------------------------------------------------
2---------------------------------------------------
3---------------------------------------------------
4---9-9-9---------6--10--9--10----------------------
5---7-7-7--7-7-7--4---8--7---8----------------------
6----------5-5-5------------------------------------  X6

End
1---------------------------------------------------
2---------------------------------------------------
3---9-9-9-9-9-9-9-9-----6-6-6-6-6-6-6-6-------------
4---9-9-9-9-9-9-9-9-----6-6-6-6-6-6-6-6-------------
5---7-7-7-7-7-7-7-7-X2--4-4-4-4-4-4-4-4-X2----------
6---------------------------------------------------
^^^^^^^^^^^^^^^^^^^^^^^
1-----------------------------------------------------------------
2-----------------------------------------------------------------
3---9-9-9-9-9-9-9-9-----6-6-6-6-6-6-6-6------6-6-6-6-6-6-6-6------
4---9-9-9-9-9-9-9-9-----6-6-6-6-6-6-6-6------7-7-7-7-7-7-7-7------
5---7-7-7-7-7-7-7-7-X2--4-4-4-4-4-4-4-4------4-4-4-4-4-4-4-4------
6--------------------------------------------5-5-5-5-5-5-5-5------ X4^^^^^^^^^^^^^^^^^^^^^^
^^^^^^^^^^^^^^^^^^^^^^
The ones with the ^^^'s under them are all one part.  
End On
1-----------------------------------------------------
2-----------------------------------------------------
3---6~------------------------------------------------
4---6~------------------------------------------------
5---4~------------------------------------------------
6-----------------------------------------------------
Intro
Verse
Chorus
Intro
Verse
Chorus
Chorus
Solo
End
Comments