Blink 182 - Obvious Chords & Tabs

 

Obvious Chords & Tabs

Blink 182 Chords & Tabs

Version: 3 Type: Bass Tab 0 ratings
1 star 2 stars 3 stars 4 stars 5 stars
comments

Obvious Bass Tab

blink 182
obvious
tabbed by daniel182

intro(00:06)
|-----------|
|-66-6------|
|-44-4-7777-|x4
|-----------|

verse 1
|----------------------------------|
|----------------------------------|
|-4444444444444444-----------------|x2
|-----------------5555555555555555-|

chorus
|--------------------------|
|--------------------------|
|-7~~~------------444-6666-|x2
|-0~~~-444-222-555---------|

intro(00:42)
|-----------|
|-66-6------|
|-44-4-7777-|x4
|-----------|

verse 2
|----------------------------------|
|----------------------------------|
|-4444444444444444-----------------|x2
|-----------------5555555555555555-|

chorus
|--------------------------|
|--------------------------|
|-7~~~------------444-6666-|x4
|-0~~~-444-222-555---------|
[ Tab from: http://www.guitartabs.cc/tabs/b/blink_182/obvious_btab_ver_3.html ]
bridge pt 1.(listen carefully..the last note is palm muted)
|----------------------------|
|----------------------------|
|-7~~~~~~~~~~~~~~~~~~~~~~----|x1
|-0~~~~~~~~~~~~~~~~~~~~~~--0-|

bridge pt 2.(01:36)
|---------------------|
|---------------------|
|--------444----------|x4
|-000-555---111-00-11-|

outro
|-----------------------------------|
|-----------------------------------|
|-7777777777777777-6666666666666666-|
|-----------------------------------|
                                             play this sequence 4 times
|------------------------------------------|
|------------------------------------------|
|-7777777777777777-00-22-66666666-44444444-|
|------------------------------------------|

end on
|----|
|-6~-|
|-4~-|x1
|----|

thats it...please rate this tab, thanks!
Comments