Blink 182 - Not Now Chords & Tabs

 

Not Now Chords & Tabs

Blink 182 Chords & Tabs

Version: 3 Type: Tab 0 ratings
1 star 2 stars 3 stars 4 stars 5 stars
comments

Not Now Tab

Blink 182 - Not Now

Standard Tuning
/ = slide

Intro
e|----------------------------------------||
b|----------------------------------------||
g|--111111111-/-7777--77/99/1111/7--9/11--||
d|--x-x-x-x-x-/-xxxx--xx/xx/x-x-/x--x/x---||
a|--9-9-9-9-9-/-5555--55/77/9-9-/5--7/9---||
e|----------------------------------------||

Riff 1
e|----------------------------------------||
b|----------------------------------------||
g|--44-7----------------------------------||
d|--44-7-77777-55555-44444----------------||
a|--22-5-77777-55555-55555----------------||
e|-------55555-33333-22222----------------||

Verse
e|----------------------------------------||
b|----------------------------------------||
g|--7~--9~--11~-12~-----------------------||
d|--7~--9~--12~-12~-----------------------||
a|--5~--7~--9~~-10~-----------------------||
e|----------------------------------------||

Pre-Chorus
e|--------------------------------------------------||
b|--------------------------------------------------||
g|--7-77777777--9-99999999--------------------------||
d|--7-77777777--9-99999999--4-44444444--5-55555555--||
a|--5-55555555--7-77777777--5-55555555--5-55555555--||
e|--------------------------2-22222222--3-33333333--||
pm    ........    ........    ........    ........

First Chorus
e|----------------------------------------||
b|----------------------------------------||
g|--77777777-7777777-7777777-77777--------||
d|--xxxxxxxx-xxxxxxx-0000000-00000-5------||
a|--55555555-4444444-xxxxxxx-xxxxx-5------||
e|-------------------7777777-55555-3------||

Verse
e|----------------------------------------||
b|----------------------------------------||
g|--7~--9~--11~-12~-----------------------||
d|--7~--9~--12~-12~-----------------------||
a|--5~--7~--9~~-10~-----------------------||
e|----------------------------------------||
[ Tab from: http://www.guitartabs.cc/tabs/b/blink_182/not_now_tab_ver_3.html ]
Chorus                                     x2
e|-----------------------------------------||
b|-----------------------------------------||
g|--77777777-7777777-7777777-77777-777777--||
d|--xxxxxxxx-xxxxxxx-0000000-00000-000000--||
a|--55555555-4444444-xxxxxxx-xxxxx-xxxxxx--||
e|-------------------7777777-55555-333333--||

Bridge
e|----------------------------------------||
b|----------------------------------------||
g|--111111111-/-7777--77/99/1111/7--9/11--||
d|--x-x-x-x-x-/-xxxx--xx/xx/x-x-/x--x/x---||
a|--9-9-9-9-9-/-5555--55/77/9-9-/5--7/9---||
e|----------------------------------------||

Chorus                                     x4
e|-----------------------------------------||
b|-----------------------------------------||
g|--77777777-7777777-7777777-77777---------||
d|--xxxxxxxx-xxxxxxx-0000000-00000-555555--||
a|--55555555-4444444-xxxxxxx-xxxxx-555555--||
e|-------------------7777777-55555-333333--||

Riff 1
e|----------------------------------------||
b|----------------------------------------||
g|--44-7----------------------------------||
d|--44-7-77777-55555-44444----------------||
a|--22-5-77777-55555-55555----------------||
e|-------55555-33333-22222----------------||

End with
e|---------||
b|---------||
g|--4-7----||
d|--4-7-7--||
a|--2-5-7--||
e|------5--||

[ Lyrics ]

Come here, please hold my hand for now
Help me, I'm scared please show me how to fight this, 
God has a master plan 
And I guess
I am in his demand
Please save me this time I cannot run
And I'll see you when this is done
And now I have come to realize
That you are the one who's left behind 

Please stay until I'm gone
I'm here hold on to me I'm right here
Waiting

I see, a light it feels good
And I'll come back soon just like you would
It's useless, my name has made the list
And I wish, I gave you one last kiss

Please stay until I'm gone
I'm here hold on to me I'm right here
Waiting and take
My one last breath, and don't forget
That I will be right here
Waiting

Please stay until I'm gone
I'm here hold on to me I'm right here
Waiting and take
My one last breath, and don't forget
That I will be right here
Waiting
Comments