Blink 182 - Not Now Chords & Tabs

 

Not Now Chords & Tabs

Blink 182 Chords & Tabs

Version: 1 Type: Tab 5 ratings
1 star 2 stars 3 stars 4 stars 5 stars
comments

Not Now Tab

   
Tabbed by Colin Baillio
Site: www.guitartabs.com
Artist: blink-182
Album:  Dragging The Lake 3
Song:   Not Now

Tuning:
1-e
2-B
3-G
4-D
5-A
6-e

.=palm mute
~=hold
_=pause

Intro Pt.1 (Clean-Flanger)
1----------------------------------------------------
2----------------------------------------------------
3---11-11-11-11-7--7-7-7-7-7-7-7--7-7-9-9-11-7-9-11--
4---0---0--0--0-0--0-0-0-0-0-0-0--0-0-0-0-0--0-0-0---
5---9---9--9--9-5--5-5-5-5-5-5-5--5-5-7-7-9--5-7-9---
6---------------------------------------------------- X4

PICK SLIDE

Intro Pt.2 (Distorted)
1---------------------------------------------
2---------------------------------------------
3-------7-7-----------------------------------
4---9-9-7-7-7--7-7-7-5--5--5-5-5-4--4--4-4-4--
5---9-9-5-5-7--7-7-7-5--5--5-5-5-5--5--5-5-5--
6---7-7-----5--5-5-5-3--3--3-3-3-2--2--2-2-2-- X4

Verse Pt.1 (Clean-Flanger, Recorded on Keyboard)
1-------------------------------------
2-------------------------------------
3-------------------------------------
4---4~-5~-7~--9~-4~-5~-7~--9~---------
5---5~-7~-9~-10~-5~-7~-9~-10~---------
6-------------------------------------
[ Tab from: http://www.guitartabs.cc/tabs/b/blink_182/not_now_tab.html ]
Verse Pt. 2 (Distorted)
1-------------------------------------------------------------------------------------------------------------------------------------
2-------------------------------------------------------------------------------------------------------------------------------------
3-------------------------------------------------------------------------------------------------------------------------------------
4---4-4-4-4-4-4-4-4-4-4-4-4-4-4-4-4-5-5-5-5-5-5-5-5-5-5-5-5-5-5-5-5-------------------------------------------------------------------
5---5-5-5-5-5-5-5-5-5-5-5-5-5-5-5-5-7-7-7-7-7-7-7-7-7-7-7-7-7-7-7-7-0-0-0-0-0-0-0-0-0-0-0-0-0-0-0-0-2-2-2-2-2-2-2-2-2-2-2-2-2-2-2-2---
6-------------------------------------------------------------------2-2-2-2-2-2-2-2-2-2-2-2-2-2-2-2-3-3-3-3-3-3-3-3-3-3-3-3-3-3-3-3--- X2
      . . . . . . . . . . . . . . .   . . . . . . . . . . . . . . .   . . . . . . . . . . . . . . .   . . . . . . . . . . . . . . .


Chorus 1 (Acoustic Guitar)
1------------------------------------------------------------------------------------------------------------------_---
2------------------------------------------------------------------------------------------------------------------_---
3---7-7-7-7-7-7-7-7-7-7-7-7-7-7-7-7-7-7-7-7-7-7-7-7-7-7-7-7-7-7-7-7-7-7-7-7-7-7-7-7-7-7-7-7-7-7-7-7-7-7-7-7-7-7-7-7_---
4---0-0-0-0-0-0-0-0-0-0-0-0-0-0-0-0-0-0-0-0-0-0-0-0-0-0-0-0-0-0-0-0-0-0-0-0-0-0-0-0-0-0-0-0-0-0-0-0-0-0-0-0-0-0-0-0_---
5---5-5-5-5-5-5-5-5-5-5-5-5-5-5-5-4-4-4-4-4-4-4-4-4-4-4-4-4-4-4-4-5-5-5-5-5-5-5-5-5-5-5-5-5-5-5-5-7-7-7-7-7-7-7-7-5_---
6---------------------------------5-5-5-5-5-5-5-5-5-5-5-5-5-5-5-5-7-7-7-7-7-7-7-7-7-7-7-7-7-7-7-7-5-5-5-5-5-5-5-5-3_---

Chorus 2 (Distorted)
1-----------------------------------------------------------------------------------------------------------------------------------
2-----------------------------------------------------------------------------------------------------------------------------------
3---7-7-7-7-7-7-7-7-7-7-7-7-7-7-7-7-7-7-7-7-7-7-7-7-7-7-7-7-7-7-7-7-7-7-7-7-7-7-7-7-7-7-7-7-7-7-7-7-7-7-7-7-7-7-7-7-7-7-7-7-7-7-7---
4---0-0-0-0-0-0-0-0-0-0-0-0-0-0-0-0-0-0-0-0-0-0-0-0-0-0-0-0-0-0-0-0-0-0-0-0-0-0-0-0-0-0-0-0-0-0-0-0-0-0-0-0-0-0-0-0-0-0-0-0-0-0-0---
5---5-5-5-5-5-5-5-5-5-5-5-5-5-5-5-4-4-4-4-4-4-4-4-4-4-4-4-4-4-4-4-5-5-5-5-5-5-5-5-5-5-5-5-5-5-5-5-7-7-7-7-7-7-7-7-5-5-5-5-5-5-5-5---
6---------------------------------5-5-5-5-5-5-5-5-5-5-5-5-5-5-5-5-7-7-7-7-7-7-7-7-7-7-7-7-7-7-7-7-5-5-5-5-5-5-5-5-3-3-3-3-3-3-3-3--- X2

End (Distorted)
1------------
2------------
3-----7------
4---9-7-7~---
5---9-5-7~---
6---7---5~---

Intro Pt. 1
PICK SLIDE
Intro Pt. 2 
Verse Pt. 1
Verse Pt. 2
Chorus 1
Intro Pt. 2 (X2)
Verse Pt. 1
Chorus 2
Bass Solo
Intro pt. 1 (X2)
Chorus 1 (X2)
Chorus 2
Intro Pt. 2
End                                             
Comments