Blink 182 - Not Now Chords & Tabs

 

Not Now Chords & Tabs

Blink 182 Chords & Tabs

Version: 4 Type: Bass Tab 0 ratings
1 star 2 stars 3 stars 4 stars 5 stars
comments

Not Now Bass Tab

   
(0:50)
Tuning ; Standard
Intro
G------------------------------------|
D------------------------------------|   x4
A-222-5-55-0-00-0000-----------------|
E-------------------3-33332-22222----|

G------------------------------------|
D------------------------------------|   x13 (play with cd for exact amount
A-55555555---------------------------|       of times. next part starts at
E------------------------------------|        1:26)

Pre-Chorus
G------------------------------------|
D------------------------------------|
A-555555555555555/7-777777777777777--|
E------------------------------------|
                                         x2
G------------------------------------|
D------------------------------------|
A------------------------------------|
E-2222222222222222/3-3333333333333333|

Chorus
G------------------------------------|
D------------------------------------|
A-5555555555555555-0000000000000000--|
E------------------------------------|
                                         x1
G------------------------------------|
D------------------------------------|
A-2222222222222222-------------------|
E------------------33333333-33333333-|

Verse
G------------------------------------|
D------------------------------------|
A-55555555---------------------------|   x6
E------------------------------------|

Chorus(2:20)
G------------------------------------|
D------------------------------------|
A-5555555555555555-0000000000000000--|
E------------------------------------|
                                         x1
G--------------------------00000000--|
D------------------------------------|
A-2222222222222222-------------------|
E------------------33333333----------|
[ Tab from: http://www.guitartabs.cc/tabs/b/blink_182/not_now_btab_ver_4.html ]
G------------------------------------|
D------------------------------------|
A-5555555555555555-0000000000000000--|
E------------------------------------|
                                         x1
G------------------22222222-00000000-|
D------------------------------------|
A-2222222222222222-------------------|
E------------------------------------|

Bass Solo (You Have to play with the song for timing)
G------------------------------------|
D------------------------------------|   x4
A-222-5-55-0-00-0000-----------------|
E-------------------3-33332-22222----|


Chorus (x4)
G------------------------------------|
D------------------------------------|
A-5555555555555555-0000000000000000--|
E------------------------------------|
                                         x1
G--------------------------00000000--|
D------------------------------------|
A-2222222222222222-------------------|
E------------------33333333----------|

G------------------------------------|
D------------------------------------|
A-5555555555555555-0000000000000000--|
E------------------------------------|
                                         x1
G------------------22222222-00000000-|
D------------------------------------|
A-2222222222222222-------------------|
E------------------------------------|

Outro
G------------------------------------|
D------------------------------------|   x4
A-222-5-55-0-00-0000-----------------|
E-------------------3-33332-22222----|

G------------------------------------|
D------------------------------------|
A-2-5-0------------------------------|
E------------------------------------|

This song is great. I Submitted This ages ago and when i looked at it again i realised
i'd put something wrong so here it is corrected. Soz!
Comments