Blink 182 - Not Now Chords & Tabs

 

Not Now Chords & Tabs

Blink 182 Chords & Tabs

Version: 3 Type: Bass Tab 0 ratings
1 star 2 stars 3 stars 4 stars 5 stars
comments

Not Now Bass Tab

Tabbed By : marioq
e-mail: magog142@hotmail.com

Tuning: EADG standard
[ Tab from: http://www.guitartabs.cc/tabs/b/blink_182/not_now_btab_ver_3.html ]
intro
G|--------------------------|
D|---00---------------------|
A|22---0-000----------------|
E|--------------3333-2222---|
verse:
background keyboard music for bass in the beggining of verse:
G|11*-9*-11*-12*-------------|
D|---------------------------|
A|---------------------------|
E|---------------------------|
come here....
G|---------------------------------|
D|---------------------------------|
A|55555----------------------------|
E|---------55555-777777-33333------|
pleeze save me!!!...
chorus:
G|---------------------------------------------|
D|---------------------------------------------|
A|5555555-4------------5-----------------------|
E|---------------5555555-5-7777777-9-10-33333--|
please stay, until im gone....
intro(x1)
verse(x1)
chorus(x1)
solo:
G|----------------------------|
D|-----00---------------------|
A|222---0000------------------|
E|---------------3333-222-0---|
chorus(x1) 
outro is the same as intro(x1)
Comments